Slapshock - Anino Mo Chords & Tabs

 

Anino Mo Chords & Tabs

Slapshock Chords & Tabs

Version: 2 Type: Bass Tab 0 ratings
1 star 2 stars 3 stars 4 stars 5 stars
comments

Anino Mo Bass Tab

anino mo
slapshock
bass tab

intro:
|------------------------------|
|------------------------------|
|-3--6\5--3----6\5--1-3--------|
|------------------------------|

verses:
|--------------------------------------------|
|-10--10-10-10--10-10-10--10-10-10--10-10----|
|--------------------------------------------|
|--------------------------------------------|

|--------------------------------------------|
|-8--8-8-8--8-8-8--8-8-8--8-8----------------|
|--------------------------------------------|
|--------------------------------------------|

pre-chorus:
|---------------------------------------------|
|-----------------1/2--2/5--3-----------------|
|-3-3-3--1-1-1--3--------------1-1-1----------|2x
|---------------------------------------------|
[ Tab from: http://www.guitartabs.cc/tabs/s/slapshock/anino_mo_btab_ver_2.html ]
chorus:
|--------------------xxx-----xx-----xx-----xx---------|
|--------------------xxx-----xx-----xx-----xx---------|
|-3-3--5-5--3-3--5-5-xxx-3-3-xx-5-5-xx-3-3-xx-5-5-----|
|--------------------xxx-----xx-----xx-----xx---------|

|-----xx-----xx-----xx-----xx-----xx-----xx-----xx--------|
|-----xx-----xx-----xx-----xx-----xx-----xx-----xx--------|
|-3-3-xx-5-5-xx-3-3-xx-5-5-xx-3-3-xx-5-5-xx-3-3-xx-5-5----|
|-----xx-----xx-----xx-----xx-----xx-----xx-----xx--------|


bridge:

part I
|-----------------------------------------------|
|-----------------------------------------------|
|-3--6--5--8--6--10--3----3--6--5--8--6--10--3--| 2x
|-----------------------------------------------|

part II
|---------------------------------------|
|---------------------------------------|
|---------------------------------------| 2x
|8--6--4--6-------8--6--4--6------------|

part III
|-----------------------------|      |----------------|
|-----------------------------|      |----------------|
|-3-3-3-3-3-------------------|4x    |----------------|
|----------------4-4-4--6-6-6-|      |-6-6-6-6-6------|
Comments