Slapshock - Anino Mo Chords & Tabs

 

Anino Mo Chords & Tabs

Slapshock Chords & Tabs

Version: 1 Type: Bass Tab 0 ratings
1 star 2 stars 3 stars 4 stars 5 stars
comments

Anino Mo Bass Tab

anino mo
slapshock
bass tab

intro
---------------------------------|
---------------------------------|
-3--6\5-5-3--3--6\5-5-1-3--------|
---------------------------------|

verse
----------------------------------|
----------------------------------|
-33-33-33-33--11-11-11-11---------|==it is not eleven, its one (1)
----------------------------------|

pre-chorus
---------------------------------|
---------------------------------|
-333-111-33-33-111---------------|
---------------------------------|
[ Tab from: http://www.guitartabs.cc/tabs/s/slapshock/anino_mo_btab.html ]
chorus
---------------------------------|
---------------------------------|
-33-55-33-55-33-55-33------------|
----------------------33---------|

bridge:

part one
---------------------------------|
---------------------------------|
-3-6-5-8-6-10-3--3-6-5-8-6-10-3--|
---------------------------------|

part two
---------------------------------|
---------------------------------|
---------------------------------|
-8-6-4-6-------8-6-4-6-----------|

part three
---------------------------------|
---------------------------------|
-3-3-3-3-3-----------------------|
------------4-4---6-6------------|
Comments