Slapshock - Agent Orange Chords & Tabs

 

Agent Orange Chords & Tabs

Slapshock Chords & Tabs

Version: 7 Type: Tab 0 ratings
1 star 2 stars 3 stars 4 stars 5 stars
comments

Agent Orange Tab

hey Girls, this is my 2nd tabs, Agent Orange, des is all for you! anyway, My Band
called A New Normal*, Im 14 years old. Contact me: Creatures_From_Above@hotmail.com
Philippiine_killer@yahoo.com.

Tunning: Drop D


Intro.

g-----------------|
d-----------------|  Bass/Play this part 4 times
a----1-------2~---|
d--1---1-x-2------|

Bass
g---------------------------------------------------------|
d----------------------1h2-1------------------------------| Play this twice.
a----1-------2~-----1~-------2----------------------------|
d--1---1-x-2---2--1---------------------------------------|

Verse

bass
g------------------------------------------|
d----------------------1h2-1---------------|
a----1-------2~-----1~-------2-------------|
d--1---1-x-2---2--1------------------------|

Guitar
e------------------------------------------|
b------18b---------------------------------|
g--19~-----19~--17~--19b-19--14-14h15------|
d------------------------------------------|
a------------------------------------------|
d------------------------------------------|

Chorus  \"agent orange get up, get up get up\"
g-------------------------------|
d-------------------------------|    8 times
a-------------------------------|
d---1-1-1h2--1-1-0-0------------|

e-------------------------------|
b-------------------------------|
g-------------------------------|
d---1-1-1h2--1-1-0-0------------|    8 times
a---1-1-1h2--1-1-0-0------------|
d---1-1-1h2--1-1-0-0------------|

Play Verse again (ALL THE SAME)
And Chorus one more time
and then... Brigde

Bridge
Bass
g------------------------------------|
d---77777---55555---77777---55-------|
a------------------------------------|
d------------------------------------|

Guitar
e------------------------------------      --------------------|
b------------------------------------      --------------------|
g---77777---55555---77777---55-------      --------------------|
d---77777---55555---77777---55------- <-x2 -0-0--0--0--0--0----|
a------------------------------------      -0-0--0--0--0--0----|
d------------------------------------      -0-0--0--0--0--0----|

[ Tab from: http://www.guitartabs.cc/tabs/s/slapshock/agent_orange_tab_ver_7.html ]
(WOOOOOOOOOOOOARR) LOL
bass  ( 4 times)
g-------------------------------------------|
d-------------------------------------------|
a---1-0-0-0--1-0-0-0--1-0-0-0--1-1-5-5------|
d---1-0-0-0--1-0-0-0--1-0-0-0--1-1-5-5------|

Guitar  ( 4 times)
e-------------------------------------------|
b-------------------------------------------|
g-------------------------------------------|
d---1-0-0-0--1-0-0-0--1-0-0-0--1-1-5-5------|
a---1-0-0-0--1-0-0-0--1-0-0-0--1-1-5-5------|
d---1-0-0-0--1-0-0-0--1-0-0-0--1-1-5-5------|


close my eyes, close my mind.....
e-----11-10-10-10--11-10-10-10-11-10-10-10-11-10-11-10-|
b------------------------------------------------------|
g------------------------------------------------------|
d------------------------------------------------------|   4 times!!!
a------------------------------------------------------|
d------------------------------------------------------|


e----------------|
b----------------|
g----------------|
d-0-2-1----------|
a-0-2-1----------|
d-0-2-1----------|


(This part is,....where jamir went crazy)

bass  ( 4 times)
g-------------------------------------------|
d-------------------------------------------|
a---1-0-0-0--1-0-0-0--1-0-0-0--1-1-5-5------|
d---1-0-0-0--1-0-0-0--1-0-0-0--1-1-5-5------|

Guitar  ( 4 times)
e-------------------------------------------|
b-------------------------------------------|
g-------------------------------------------|
d---1-0-0-0--1-0-0-0--1-0-0-0--1-1-5-5------|
a---1-0-0-0--1-0-0-0--1-0-0-0--1-1-5-5------|
d---1-0-0-0--1-0-0-0--1-0-0-0--1-1-5-5------|

bass
g-----------------|
d-----------------|
a-----------------|
d-1-1--1-1-1--1-1-|

gaytar
e-----------------|
b-----------------|
g-----------------|
d-1-1--1-1-1--1-1-|
a-1-1--1-1-1--1-1-|
d-1-1--1-1-1--1-1-|


Back to chorus!

e-------------------|
b-------------------|
g-------------------|
d-1-1-1-2~-1-1-1-2~-| 4 times
a-1-1-1-2~-1-1-1-2~-|
d-1-1-1-2~-1-1-1-2~-|

e-------------------------|
b-------------------------|
g-------------------------|
d-1-1-1-2~-1-1-1-2~~~~~~~-|
a-1-1-1-2~-1-1-1-2~~~~~~~-|
d-1-1-1-2~-1-1-1-2~~~~~~~-|

And this is it, THE END

hey, if u guys have any commnets, HERE: Creatures_From_ABove@hotmail.com/
Sorry, but I guess this is good, Im not like a Professinal, but, Im just a kid, who\'s
14 years old, who likes SLAPSHOCK...well, peace out mhen, and have fun.
Comments