Slapshock - Agent Orange Chords & Tabs

 

Agent Orange Chords & Tabs

Slapshock Chords & Tabs

Version: 3 Type: Tab 0 ratings
1 star 2 stars 3 stars 4 stars 5 stars
comments

Agent Orange Tab

   

\"Agent Orange\" by Slapshock
from the album \'Fourth degree burn\'

tuning: drop D - DADGBe

Intro
(bass)


   *verse*
   (clean)

e-------------13--------------------------------------------
B----13h15-------15------13--13h15------13------------------
G-------------------------------------------14--------------


e------------------13---------------------------------------------------
B----13---13h15-------15------13--13h15---13----------------------13----
G---------------------------------------------14----14---14h15--------15



e-------------13--------------------------------------------
B----13h15-------15------13--13h15------13------------------
G-------------------------------------------14-----14-14h15-


   *chorus*
   (distored)

e-----------------------------------------------
B-----------------------------------------------
G-----------------------------------------------
D-0---------0--1----0--0--x--0------------------	
A-0---3h5---0--1----0--0--x--0---0m---5h6-------
D-0---------0--1----0--0--x--0---0m-------------

\" agent orange get up.....\"

    (back to verse, play $ measures then chorus, then *part2*)

   *part 2*

D-----------------------------------------------------------
A----55555555-------33333333-------55555555-----33333-------
D-----------------------------------------------------------

D--1m---0m---0m---0m-----
A--1m---0m---0m---0m-----
D--1m---0m---0m---0m-----

[ Tab from: http://www.guitartabs.cc/tabs/s/slapshock/agent_orange_tab_ver_3.html ]
D-----------------------------------------------------------
A----55555555-------33333333-------55555555-----33333-------
D-----------------------------------------------------------

D--1m-0m---0m---0m---
A--1m-0m---0m---0m---
D--1m-0m---0m---0m---


D--0m
A--0m
D--0m

(pause)

(vocals screams)


  *part 3*

D--1--0--00-x-0---0---1--0--00-x-0---0---1--0--00-x--0-------
A--1--0--00-x-0---0---1--0--00-x-0---0---1--0--00-x--0-------
D--1--0--00-x-0---0---1--0--00-x-0---0---1--0--00-x--0-------

D--0---3---0-----3/5-------	
A--0---3---0-----3/5-------
D--0---3---0-----3/5-------	

	(4X)


   *part 4*

e--------------------------------------------------------------------------
B------8p7-77x7--7-8p7-77x7--7-8p7-77x7--7-8--7--8--7----------------------
G--------------------------------------------------------------------------

	(4X)

D------7-----6--------
A------7-----6--------
D------7-----6--------

	(return to *part 3* then to *part 5*)

   *part 5*

D---0-----0------0-0-0------0---------
A---0-----0------0-0-0------0---------	
D---0-----0------0-0-0------0---------

	(pause then feed back, back to chorus then outro)

   *outro*

D---0---------------------------------
A---0---3h5---0---1---------5h6-------
D---0---------0---1-------------------

	(4X)


D-------------------------------------
A---3h5--55--3h5--55----55--6\\0-------
D-------------------------------------

that\'s about it.
It\'s actually 3 guitars playing but 
I transcribed it so you can play it with only one.


Key


/ = Slide 
p = Pull off
h = Hammer
m = Palm mute
x = dead pick

corrections, suggestions, just
mail me at flangeloni@hotmail.com

 
Comments