Slapshock - Agent Orange Chords & Tabs

 

Agent Orange Chords & Tabs

Slapshock Chords & Tabs

Version: 2 Type: Tab 0 ratings
1 star 2 stars 3 stars 4 stars 5 stars
comments

Agent Orange Tab

Title: Agent Orange
Transcribed by:Jay Roque
Album: 4th Degree Burn
(guitar w/ distortion and  slight effects)

Bass Riff:(guitar Version)
|-------------------------------------------------------------------|
|-------------------------------------------------------------------|
|-------------------------------------------------------------------|
|------12-----------------------------------------------------------|
|----------11\------------------------------------------------------|
|-------------------------------------------------------------------|


|-------------------------------------------------------------------|
|-------------------------------------------------------------------|
|-------------------------------------------------------------------|
|-------------------------------------------------------------------|
|-----------------------------3-------------4-5-4-------------------|
|-------------------0-3-0-1-3----3----0-3---------------------------|
Repeat intro 2x

Verse:
|-------12/13-------------------------------------------------------|
|--15----------15---13-13h15--13-------------------14---------------|
|---------------------------------14-----14-15----------------------|
|-------------------------------------------------------------------|
|-------------------------------------------------------------------|
|-------------------------------------------------------------------| repeat

Chorus( heavy distortion)
|-------------------------------------------------------------------|
|-------------------------------------------------------------------|
|-------------------------------------------------------------------|
|---5-5-5-5-5-5-5--8------------------------------------------------|
|---5-5-5-5-5-5-5--6------------------------------------------------|
|---3-3-3-3-3-3-3---------------------------------------------------|

bridge:1
|-------------------------------------------------------------------|
|-------------------------------------------------------------------|
|-------------------------------------------------------------------|
|-7-7-7--5-5-5--7-7-7--5-5------------------------------------------|
|-5-5-5--3-3-5--5-5-5--3-3---2-2-2-2-2-2-2--------------------------|
|----------------------------0-0-0-0-0-0-0--------------------------|
  			     (palm mute)

bridge 2: After the shout
[ Tab from: http://www.guitartabs.cc/tabs/s/slapshock/agent_orange_tab_ver_2.html ]
|-------------------------------------------------------------------|
|-------------------------------------------------------------------|
|-------------------------------------------------------------------|
|-------------------------------------------------------------------|
|3-2-2-2-3-2-2-2-3-2-2-2-----3-3----5-5-----------------------------|
|1-0-0-0-1-0-0-0-1-0-0-0-----1-1----3-3-----------------------------| Repeat when necessary

then:
|-------------------------------------------------------------------|
|-------------------------------------------------------------------|
|-------------------------------------------------------------------|
|-13p12--12-12-12-13p12---12-12-12-13p12-14p12----------------------|
|-------------------------------------------------------------------|
|-------------------------------------------------------------------|

|-------------------------------------------------------------------|
|-------------------------------------------------------------------|
|-------------------------------------------------------------------|
|-------------------------------------------------------------------|
|-3-------3-------3-------3-3-3-5-5-5-------------------------------|
|-1-0-0-0-1-0-0-0-1-0-0-0-1-1-1-3-3-3-------------------------------|
close my eyes .......

before chorus ending:
|--------------------9b---------------------------------------------|
|-------------------------------------------------------------------|
|-------------------------------------------------------------------|
|-------------------------------------------------------------------|
|-4-4-3-3-2---------------------------------------------------------|
|-2-2-1-1-0---------------------------------------------------------|

repeat chorus:

end
|-------------------------------------------------------------------|
|-------------------------------------------------------------------|
|-------------------------------------------------------------------|
|-------------------------------------------------------------------|
|-7/12--------------------------------------------------------------|
|------13-12-13--12/15--15-14-15-17---------------------------------| repeat 2x
then
|-------------------------------------------------------------------|
|-------------------------------------------------------------------|
|-------------------------------------------------------------------|
|-------------------------------------------------------------------|
|---------------------------10--------------------------------------|
|--10p9-10p9-9--10p9-10p9-9-----------------------------------------|







Comments