Slapshock - Agent Orange Chords & Tabs

 

Agent Orange Chords & Tabs

Slapshock Chords & Tabs

Version: 2 Type: Bass Tab 0 ratings
1 star 2 stars 3 stars 4 stars 5 stars
comments

Agent Orange Bass Tab

slapshock
agent orange
bass tab

intro/verses:
|----------------------7-7/8-7-----------|
|---7--------10------7---------7---------|
|-7---7--8-8----8--7---------------------|
|----------------------------------------|

chorus:
|--------------------------|
|--------------------------|
|--------------------7/8---| 8x
|--0-----0-1---0-0-0-------|
[ Tab from: http://www.guitartabs.cc/tabs/s/slapshock/agent_orange_btab_ver_2.html ]
BRIDGE:
|-----------------------------------------------------------------------|
|-----------------------------------------------------------------------|
|--7---7-7-7-----5---5-5-5-----7---7-7-7-----5---5-5--------------------|2x
|-----------------------------------------------------0-0--0--0----(0)--|

|-----------------------|           |---------------|
|-----2(slap)--2(slap)--|           |---------------|
|-----------------------|3x then    |---------------|repeat until its needed
|-0-1-------------------|           |--0--0-1/---5--|
Comments