Slapshock - Agent Orange Chords & Tabs

 

Agent Orange Chords & Tabs

Slapshock Chords & Tabs

Version: 1 Type: Bass Tab 0 ratings
1 star 2 stars 3 stars 4 stars 5 stars
comments

Agent Orange Bass Tab

   
song: agent orange
artist: slapshock
Tabbed by: Regan 

Tunning: Drop D (D A D G)

Intro:                                                                      
|--------|
|-8------|
|---6b---|
|--------|

|--------------------------------|                                         
|-----------------------1-2--1---|                                    
|----1--------2------1---------2-|                                    
|-1-----1-x-2---2-1--------------|            
[ Tab from: http://www.guitartabs.cc/tabs/s/slapshock/agent_orange_btab.html ]
|--------------------------------|                                    
|-----------------------1-1h2--1-|                                    
|----1--------2------1-----------|                                   
|-1-----1-x-2---2-1--------------|                                   
                                                                    
Verse 1: 2x                                                             
|--------------------------------|                                    
|-------1---------------1-2--1---|                                    
|----1--------2------1---------2-|   
|-1-------x-2---2-1--------------|   
                                      
|--------------------------------|    
|-------1---------------1-2--1---|    
|----1--------2------1-----------|    
|-1-------x-2---2-1--------------|       
                                      
|--------------------------------|    
|-------1---------------1-2--1---|    
|----1--------2------1---------2-|    
|-1-------x-2---2-1--------------|    
                                      
|--------------------------------|    
|-------1---------------1-1h2----|   
|----1--------2------1-----------|      
|-1-------x-2---2-1--------------|

Chorus:
|----------------------|
|----------------------|
|----------------------| 8x
|-1--1/2\1--1--0--0----|

verse 2 : just play verse 1

Bridge:i think there's no bass, but you can play it like this.
|----------------------------------------------| |------------|
|----------------------------------------------| |------------|
|-5--55555----3--33333----5--55555----3-33333--| |------------|  
|----------------------------------------------| |--0-0--0--0-|       

|----------------------------------------------| |---------------|
|----------------------------------------------| |---------------|
|-5--55555----3--33333----5--55555----3-33333--| |---------------|  
|----------------------------------------------| |--0-0--0--0--0-|       
     
|--------------------------------|
|--------------------------------|
|--------------------------------| 4x
|-1--0-0--1-0-0--0-1-0-0--0-1--5-|

(2:55) this is the part of the guitar...

|-----------------------------------------|
|-----------------------------------------|
|-----------------------------------------| 4x
|-6--5---1--0-0--0-1-0-0--0-1-0-0--0-1--5-|

|----------------|
|----------------|
|----------------|
|-0--0--0-0-0--0-|

then play chorus...

ending:
|---------------|     |-------------------------|
|---------------|     |-------------------------|
|-4---6--4-4h6--| 4x  |-4h6-4-4h6--4h6-4-4h6-7\-|
|---------------|     |-------------------------|

The End. Tapos Na!!!
This tab is so good to hear especially the verse once you learn it .
Mas madali kasi tugtugin pag Drop D.
This tab is dedicated to the los torpedos.
Pls. rate this tab.
Comments