Slapshock - Agent Orange Acoustic Chords & Tabs

 

Agent Orange Acoustic Chords & Tabs

Slapshock Chords & Tabs

Version: 2 Type: Tab 0 ratings
1 star 2 stars 3 stars 4 stars 5 stars
comments

Agent Orange Acoustic Tab

   
submitted by ?jan C+sEs+C 
Song: AGENT ORANGE (acoustic)
Artist: Slapshock
Album: Rivermaya: Live and Acoustic
Tuning: D G C F A D (whole step down)
Tabbed by: JakeC21

Intro
 
(4x)                (4x)
D|----0-----1---|   |-----0-------1-------0--------1----|
A|----0-----1---|   |----0--0----1--1----0--0----1---1--|
F|--2---2-3-----|   |--2-----2-3-----3-2-----2-3--------|
C|--------------|   |-----------------------------------|
G|--------------|   |-----------------------------------|
D|--------------|   |-----------------------------------|

Verse

  (8x)
D|-----0-------1-------0--------1----|
A|----0--0----1--1----0--0----1---1--|
F|--2-----2-3-----3-2-----2-3--------|
C|-----------------------------------|
G|-----------------------------------|
D|-----------------------------------|
Gtr.1

D|------------------------------------------|
A|------------------------------------------|
F|--9---9^12--9---7--7-7^9-9---7\4--4-5--7--|
C|------------------------------------------|
G|------------------------------------------|
D|------------------------------------------|
Gtr.2

Chorus

  (8x)
D|------------------------------------|
A|------------------------------------|
F|---7^9-9--9-9--9-9--9-10------------|
C|---7^9-9--9-9--9-9--9-10------------|
G|-------7--7-7--7-7--7-8-------------|
D|--0---------------------------------|
[ Tab from: http://www.guitartabs.cc/tabs/s/slapshock/agent_orange_acoustic_tab_ver_2.html ]
  (4x)
D|----0-----1--|
A|----0-----1--|
F|--2---2-3----|
C|-------------|
G|-------------|
D|-------------|

Verse
Chorus

Bridge

  (2x)
D|----------------------------------------------------|
A|----------------------------------------------------|
F|--9--9-9--9-9---7--7-7--7-7---9--9-9--9-9---7-7--7--|
C|--9--9-9--9-9---7--7-7--7-7---9--9-9--9-9---7-7--7--|
G|--7--7-7--7-7---5--5-5--5-5---7--7-7--7-7---5-5--5--|
D|----------------------------------------------------|
  (4x)
D|------------------------------------|
A|--10-9-9--10-9-9--10-9-9-10-9-10-9--|
F|----9----9--9----9--9---9-----------|
C|------------------------------------|
G|------------------------------------|
D|------------------------------------|
  (4x)
D|----------------------------------------------------------|
A|----------------------------------------------------------|
F|--10\9-9--9--9-10\9-9--9--9-10\9-9--9--9-10--14-14-14-14--|
C|--10\9-9--9--9-10\9-9--9--9-10\9-9--9--9-10--14-14-14-14--|
G|--8-\7-7--7--7-8-\7-7--7--7-8-\7-7--7--7-8---12-12-12-12--|
D|----------------------------------------------------------|

Chorus

Outro

 (4x)
D|----------------|
A|----------------|
F|---7^9-9-10-----|
C|---7^9-9-10-----|
G|-------7-8------|
D|--0-------------|
          ...sus

D|-------------------------------|
A|-------------------------------|
F|--7^9-9-7-9--7^9-9-7-9/10------|
C|--7^9-9-7-9--7^9-9-7-9/10------|
G|----------7----------7/8-------|
D|-------------------------------|
Comments