Slank - Tut Wuri Handayani Chords & Tabs

 

Tut Wuri Handayani Chords & Tabs

Slank Chords & Tabs

Version: 1 Type: Bass Tab 0 ratings
1 star 2 stars 3 stars 4 stars 5 stars
comments

Tut Wuri Handayani Bass Tab

Judul: Tut Wuri Handayani
Artis: Slank
Album: Minoritas

Tabbed by: Bimo Hendratomo 
Mailbox  : om_sapong_crit@plasa.com




G|-------------------------------------------|
D|-------------------------------------------|
A|-----------------2h3-----------------------| 3x
E|--0h5--0h5--0h5--------0h5--0h5--0h5--0h5--|


G|---------------------------------------------|
D|---------------------------------------------|
A|-----------------2h3--------------------6h7--|
E|--0h5--0h5--0h5--------0h5--0h5--0h5--5------|


(Pola 1)
      ghostnote (gh)
G|-------------------|
D|----------------7--|
A|----x-6-7---6-7----|
E|--5----------------|



      gh.              gh.              gh.              gh.
G|---------------------------------------------------------------------|
D|---------------7----------------7----------------5----------------5--|
A|----x-6-7--6-7-------x-6-7--6-7-------x-4-5--4-5-------x-4-5--4-5----| 2x
E|--5----------------5----------------3----------------3---------------|
                                                     (some of this part,
                                                      Bongky use other riff.)
[ Tab from: http://www.guitartabs.cc/tabs/s/slank/tut_wuri_handayani_btab.html ]
                                                  staccato
G|-------------------------------------------------------|
D|-------------------------------------------------------|
A|---------------------------2--------------------.-.-.--|
E|--2-2-2-0-2-3----2-2-2-0-2------2-2-2-0-2-3-----0-1-2--|

                                                  staccato
G|-------------------------------------------------------|
D|-------------------------------------------------------|
A|---------------------------2--------------------.-.-.--|
E|--2-2-2-0-2-3----2-2-2-0-2------2-2-2-0-2-3-----0-0-0--|



                                     staccato                      staccato
G|--------------------------------------|-----------------------------|
D|-----------------------------------.--|-----------------------------|
A|--------------------7--------------5--|-------------------5------.--| 2x
E|--5--0h5--0h5--0h5----5--0h5--0h5-----|--3--0h3--0h3--0h3---3--0h3--|

then...

 (4x)


 (4x)

 use Pola 1 (4x)

(Pola 2)
G|----------------------------------------------------------------|
D|-------------------------------------------------------------7--|
A|---------------------------------------------------------6-7----|
E|--1-1-1-1-1-0----1-1-1-1-1-0----1-1-1-1-1-0----1-1-1-1-1--------|

 (4x)
 (1x)



      Let this note ring...  pt
G|-------------------------------|
D|---------------------------7---|
A|----------------------------.--|
E|----3~~~~~~~~~~-------------5--|



-end of tab
Comments