Slade - Know Who You Are Chords & Tabs

 

Know Who You Are Chords & Tabs

Slade Chords & Tabs

Version: 1 Type: Bass Tab 0 ratings
1 star 2 stars 3 stars 4 stars 5 stars
comments

Know Who You Are Bass Tab

Slade- Know Who You Are
Tabbed by: Duncan5 (aka RighteousDuncan)

This is the version of the song from the Sladest album. Listen to the song for timing:
Verse 1
G|--------------------------------------------------------------|
D|--------------------------------------------------------------|
A|-00-00-00-00-00-00-00-00-00-00-00-00-00-00-00-00-00-00-00--00-|
E|--------------------------------------------------------------|

G|--------------------------------------------------------------------|
D|--------------------------------------------------------------------|
A|-00--00--00--00--00--00--00--00--00--00--00--00--00--00--00--00-00--|
E|--------------------------------------------------------------------|
Chorus

G|------------------------------------------------------------------------|
D|----------------------------------000-----------------------------------|
A|------3\12---000---333----------------333------0------------------------|
E|-------------------------------------------------------------3----------|

G|------------------------------------------------------------------------|
D|----------------------------------000-----------------------------------|
A|------3\12---000---333----------------333------0------------------------|
E|-------------------------------------------------------------3----------|

G|------------------------------------------------------------------------|
D|----------------------------------000-----------------------------------|
A|------3\12---000---333----------------333------0------------------------|
E|-------------------------------------------------------------3----------|

G|-------------------------------------------------------------------------|
D|----------------------------------000------------------------------------|
A|------3\12---000---333----------------333------0-------------------------|
E|-------------------------------------------------------------3-----------|

Verse 2
G|--------------------------------------------------------------|
D|--------------------------------------------------------------|
A|-00-00-00-00-00-00-00-00-00-00-00-00-00-00-00-00-00-00-00--00-|
E|--------------------------------------------------------------|
[ Tab from: http://www.guitartabs.cc/tabs/s/slade/know_who_you_are_btab.html ]
G|--------------------------------------------------------------------|
D|--------------------------------------------------------------------|
A|-00--00--00--00--00--00--00--00--00--00--00--00--00--00--00--00-00--|
E|--------------------------------------------------------------------|
Chorus

G|------------------------------------------------------------------------|
D|----------------------------------000-----------------------------------|
A|------3\12---000---333----------------333------0------------------------|
E|-------------------------------------------------------------3----------|

G|---------------------------------------------------------------------|
D|----------------------------------000--------------------------------|
A|------3\12---000---333----------------333------0---------------------|
E|-------------------------------------------------------------3-------|

G|---------------------------------------------------------------------|
D|----------------------------------000--------------------------------|
A|------3\12---000---333----------------333------0---------------------|
E|-------------------------------------------------------------3-------|

G|-------------------------------------------------------------------------|
D|----------------------------------000------------------------------------|
A|------3\12---000---333----------------333------0-------------------------|
E|-------------------------------------------------------------3----------=|

Verse 3

G|--------------------------------------------------------------|
D|--------------------------------------------------------------|
A|-00-00-00-00-00-00-00-00-00-00-00-00-00-00-00-00-00-00-00--00-|
E|--------------------------------------------------------------|

G|--------------------------------------------------------------------|
D|--------------------------------------------------------------------|
A|-00--00--00--00--00--00--00--00--00--00--00--00--00--00--00--00-00--|
E|--------------------------------------------------------------------|

Outro

G|---------------------------------------------------------------|
D|---------------------------------------------------------------|
A|---55---33-------33--00-----55----33----33---00----------------|
E----------------------------------------------------------------|

Repeat Until Fade
Comments