Slade - Hear Me Calling Chords & Tabs

 

Hear Me Calling Chords & Tabs

Slade Chords & Tabs

Version: 1 Type: Bass Tab 0 ratings
1 star 2 stars 3 stars 4 stars 5 stars
comments

Hear Me Calling Bass Tab

   
Title: Hear Me Callin
Artist: Slade
Album: Slade Alive

Instrument: 4 String Bass

Tabbed by: RighteousDuncan

Tuning: Standard (E A D G)

Here is the bass tab for Hear Me Callin:

G|-------------------------------------------------------------------||
D|--------------------------2-----------------------------2----------||
A|2-2-2-2-2-2-2-2-2-2-2-2-2---2-2-2-2-2-2-2-2-2-2-2-2-2-2------------||
E|-------------------------------------------------------------------||

G|-------------------------------------------------------------------||
D|-----------------------------2-----------------------------2-------||
A|-2-2-2-2-2-2-2-2-2-2-2-2-2-2---2-2-2-2-2-2-2-2-2-2-2-2-2-2---------||
E|-------------------------------------------------------------------||

G|-------------------------------------------------------------------||
D|-------------------------------------------------------------------||
A|-2-2-2-2-2-2-2-2-2-2-2-2-2-2-2-2-2-2-2-2-2-2-2-2-2-2-2-2-2-2-2-2-2-||
E|-------------------------------------------------------------------||

G|-------------------------------------------------------------------||
D|-2-2-2-2-2-2-2-2-2-2-2-2-2-2-2-2-----------------------------------||
A|---------------------------------2-2-2-2-2-2-2-2-2-2-2-2-2-2-2-2-2-||
E|-------------------------------------------------------------------||
  Hear Me Callin ..Hear me callin you
G|-------------------------------------------------------------------||
D|-----------------------------------------2-2-2-2-2-2-2-2-2-2-2-2-2-||
A|-2-2-2-2-2-2-2-2-2-2-2-2-2-2-2-2-2-2-2-2---------------------------||
E|-------------------------------------------------------------------||
                                           Hear Me Callin.... Hear Me 
G|-------------------------------------------------------------------||
D|-2-2-2-------------------------------------------------------------||
A|-------2-2-2-2-2-2-2-2-2-2-2-2-2-2-2-2-2-2-2-2-2-2-2-2-2-2-2-2-2-2-||
E|-------------------------------------------------------------------||
  callin you
G|-------------------------------------------------------------------||
D|------------------------------------------/5-5-3-0-----------------||
A|-3--3--3--3/-5--5--5--5--/0-0-0-0------------------2-0-------------||
E|-------------------------------------------------------3-3---------||
If you dont come soon I know my love aint true

G|-------------------------------------------------------------------||
D|-/-5-5-3-0----------/5-5-3-0--------/-5-5-3-0----------------------||
A|-----------2-0--------------2-0---------------2-0------------------||
E|---------------3-3--------------3-3---------------3-3--------------||

G|-------------------------------------------------------------------||
D|---------------------------/5-5-3-0----------/5-5-3-0--------------||
A|-2-2-2-2-2-2-2-2-2-2-2-2-2----------2-0---------------2-0----------||
E|----------------------------------------3-3---------------3-3------||
  Hear me callin...........loud
G|-------------------------------------------------------------------||
D|--/5-5-3-0---------/5-5-3-0-----------------------------/-5-5-3-0--||
A|-----------2-0--------------2-0-----2-2-2-2-2-2-2-2-2-2------------||
E|--------------3-3--------------3-3---------------------------------||
                                    Hear me callin.......loud
G|-------------------------------------------------------------------||
D|------------/-5-5-3-0---------/-5-5-3-0--------/5-5-3-0------------||
A|--2-0----------------2-0---------------2-0--------------2-0--------||
E|------3-3----------------3-3---------------3-3--------------3-3----||
[ Tab from: http://www.guitartabs.cc/tabs/s/slade/hear_me_calling_btab.html ]
G|-------------------------------------------------------------------||
D|---------------------------------------------/5-5-3-0--------------||
A|-3--3--3--3-/-5--5--5--5/0--0--0--0-------------------2-0----------||
E|----------------------------------------------------------3-3------||
  If you don't come soon I'll be wearin a shroud

During the Guitar solo 
G|-------------------------------------------------------------------||
D|-/5-5-3-0--------/5-5-3-0---------/5-5-3-0-------------------------||
A|---------2-0--------------2-0--------------2-0------2-2-2-2-2-2-/12||
E|------------3-3---------------3-3--------------3-3-----------------||
                         
G|----------------------------------------------||
D|---------------------2-0------------0h2-------||
A|/-12-2/12-2/12-2-2-2-----2--------2-----------||
E|--------------------------3-0-0-3-------------||

Part when Noddy talkes to the crowd; sort of a mini bass solo
G|-------------------------------------------------------------------||
D|-------------------------------------------------------------------||
A|-5h7-5h7-5h7-5h7-5h7-5h7-5h7-5h7-5h7-7-5h7-5h7-5h7-5h7-5h7-5h7-5h7-||
E|-------------------------------------------------------------------||

G|--------------------------------------||
D|--------------------------------------||
A|-5h7-5h7-5h7-5h7-7-5h7-5h7-5h7-5h7----||
E|--------------------------------------||

Out of mini bass solo:
G|-------------------------------------------------------||
D|-------------------------------------------------------||
A|2-/12-2-/12-4/12-/12---7-7/12--7/17-fadingslideto12--2-2|
E|-------------------------------------------------------||

G|-------------------------------------------------------------------||
D|-/-5-5-3-0----------/5-5-3-0--------/-5-5-3-0---------/5-5-3-0-----||
A|-----------2-0--------------2-0---------------2-0--------------2-0-||
E|---------------3-3--------------3-3---------------3-3-------------3-3

G|-------------------------------------------------------------------||
D|---------------------------/5-5-3-0----------/5-5-3-0--------------||
A|-2-2-2-2-2-2-2-2-2-2-2-2-2----------2-0---------------2-0----------||
E|----------------------------------------3-3---------------3-3------||
  Hear me callin...........loud
G|-------------------------------------------------------------------||
D|--/5-5-3-0---------/5-5-3-0-----------------------------/-5-5-3-0--||
A|-----------2-0--------------2-0-----2-2-2-2-2-2-2-2-2-2------------||
E|--------------3-3--------------3-3---------------------------------||
                                    Hear me callin.......loud

G|-------------------------------------------------------------------||
D|------------/-5-5-3-0---------/-5-5-3-0--------/5-5-3-0------------||
A|--2-0----------------2-0---------------2-0--------------2-0--------||
E|------3-3----------------3-3---------------3-3--------------3-3----||

G|-------------------------------------------------------------------||
D|---------------------------------------------/5-5-3-0--------------||
A|-3--3--3--3-/-5--5--5--5/0--0--0--0-------------------2-0----------||
E|----------------------------------------------------------3-3------||
  If you don't come soon I'll be wearin a shroud

Ending; extremely slow
G|-------------------------------------------------------------------||
D|-------------------------------------------------------------------||
A|-5-5-5-5-7-7-7-7-7-7-7-5-5-5-5-5-5-7-7-7-7-7-7-5/12-5-5-7-7-7-7-7--||
E|-------------------------------------------------------------------||

G|---------------------||
D|---------------------||
A|-5-7-7-7-7-7-7-5~----||
E|---------------------||

Thanks
RighteousDuncan
Comments