Slackers - Wasted Days Chords & Tabs

 

Wasted Days Chords & Tabs

Slackers Chords & Tabs

Version: 1 Type: Tab 0 ratings
1 star 2 stars 3 stars 4 stars 5 stars
comments

Wasted Days Tab

the Slackers - Wasted Days
Tabbed by Roman
www.mobside.com


G|--------------1-----|
D|-------1-----3------|
A|------3--44-4-------|
E|--44-4--------------|

Bass part for most of the song
[ Tab from: http://www.guitartabs.cc/tabs/s/slackers/wasted_days_tab.html ]
E |--8-8-8-9----------------------|
B |--9-9-9-9----------------------|
G |--8-8-8-10---------------------|
D |-------------------------------|
A |-------------------------------|
E |-------------------------------|

Guitar, up stroke (ska) strumming.

(first tab)

roman@mobside.com
Comments