Skyfire - Breed Through Me Bleed For Me Chords & Tabs

 

Breed Through Me Bleed For Me Chords & Tabs

Skyfire Chords & Tabs

Version: 1 Type: Tab 0 ratings
1 star 2 stars 3 stars 4 stars 5 stars
comments

Breed Through Me Bleed For Me Tab

   
Greetings, I apologize for the tabs I've been posting being incomplete, I'm trying to get up tabs for bands and/or songs that no one else has tabbed for some reason. If your a big fan of melodic death metal in the vein of children of bodom and such, skyfire is fantastic. Here's the tab:

			Skyfire
		Breed Through Me, Bleed For Me
                     Tabbed By Jeff C. (Jotun)                                                         
		   davemus000@hotmail.com
		    Tune guitars down 2 steps.
           (Sorry, this is in standard tuning but I don't have
                a guitar in standard right now :))
	   hp - hammeron or pulloff
	   ~  - vibrato
           x  - fret hand mute
           *  - palm mute
           "  - tremolo pick
     
     
     
     
     
     Intro: Synth plays these chords behind another synth melody.
  
  Am     Am      C       D

|-0------4---------------------|
|-5------5-------9------11-----|
|-6------6-------9------11-----| Riff A
|-6------6-------9------11-----|
|-4------4-------7-------9-----|
|------------------------------|

 Guitar comes in: (Riff B)
 Riff A continues =========================================================                                                                           
--------------------------------------------------------------------------| GTR
--------------------------------------------------------------------------|  1
----------6---6-8~--6-8-9---6-8--9p8p6---6---6-8---6-8-9---8-9/11~--------|
x\-pick-----9-------------9------------9---9------------------------------|
x\-slide------------------------------------------------------------------|
x\------------------------------------------------------------------------|


                                                                            
--------------------------------------------------------------------------| GTR
--------------------------------------------------------------------------|  2
----------6---------------------------9-------------------11--------------|
----------6---------------------------9-------------------11--------------|
----------4---------------------------7-------------------9---------------|
--------------------------------------------------------------------------|
[ Tab from: http://www.guitartabs.cc/tabs/s/skyfire/breed_through_me_bleed_for_me_tab.html ]
Riff B continues: GTR 1                                                           
                                                                            
--------------------------------------------------------------------------| GTR
--------------------------------------------------------------------------|  2 
----------6-----6-----6-----6-----6---9-----9-----9-----9-11----11----11\-|
----------6-----6-----6-----6-----6---9-----9-----9-----9-11----11----11\-|
----------4-4-4-4-4-4-4-4-4-4-4-4-4-4-7-7-7-7-7-7-7-7-7-7-9-9-9-9-9-9-9-\-|
--------------------------------------------------------------------------|
            * *   * *   * *   * *   *   * *   * *   * *     * *   * *


  staccato                                                                            
--------------------------------------------------------------------------------| GTR
--------------------------------------------------------------------------------|  1
--------------------------------------------------------------------------------|
-13-13--13-1111-1113-13--------8~---9"-8"-6-8-9"-8h9-11--9-8--------------------|
-11-11--11-9-9--9-11-11--9h11---------------------------------------------------|
--------------------------------------------------------------------------------|


                                                                            
--------------------------------------------------------------------------| GTR
--------------------------------------------------------------------------|  1
---------------------------------------------------------------------11---|
-13-13x-13-11-11x-11-13-13x-13--9--11--13-13x-13-11-11x-11-13-13x-13-11---|
-11-11x-11-9--9-x-9--11-11x-11--7--9---11-11x-11-9--9-x-9--11-11x-11-9----|
--------------------------------------------------------------------------|


                                                                          
--------------------------------------------------------------------------| GTR
--------------------------------------------------------------------------|  2
----sounds like extremely fast tapping, haven't figured it out yet--------|
--------------------------------------------------------------------------|
--------------------------------------------------------------------------|
--------------------------------------------------------------------------|


                                                                            
	Outro Riff + Solo coming soon.
Comments