Sky Church - Bane Chords & Tabs

 

Bane Chords & Tabs

Sky Church Chords & Tabs

Version: 1 Type: Tab 0 ratings
1 star 2 stars 3 stars 4 stars 5 stars
comments

Bane Tab

                          "BANE"BY SKY CHURCH
                        transcribed by:freongang  
                    visit me at:freongang_81@yahoo.com
                         freongang_08@yahoo.com

  intro: (bass riff w/ slap) X4
e|-------------------------|
B|-------------------------|
G|-------------------------|
D|-------------------------|
A|-------------------------|
E|---2-1-1-0-0-1-2---------|

    (guitar riff) X7      then proceed here
e|--------------------  --------------------|
B|--------------------  --------------------|
G|--------------------  --------------------|
D|--------------------  --------------------|
A|-4-3-3-2-2-3-4------  --5-----6-6-6-6-5---|
E|-2-1-1-0-0-1-2------  --3-----4-4-4-4-3---|

 depressed and lonely everyday... x2
e|-------------------------------------|
B|-------------------------------------|
G|--5--6---5--6---5--6---5-------------|
D|--5--6---5--6---5--6---5-------------|
A|--3--4---3--4---3--4---3-------------|
E|--0--0---0--0---0--0---0-------------|

 hazed and wasted...X2
e|-------------------------------------|
B|-------------------------------------|
G|-------------------------------------|
D|-------------------------------------|
A|-----------------------------4--3----|
E|-0-0-0-3-3-2-2-2-2-1-1-1-1---2--1----|

 failure to realized the mistake...X2
e|-----------------------------------------|
B|-----------------------------------------|
G|-----------------------------------------|
D|-8-8-8-8-0-9-9-9-9-0-10-10-10-10--0-9----|
A|-6-6-6-6-0-7-7-7-7-0-8--8--8--8---0-7----|
E|-----------------------------------------|

e|---------------------------|
B|---------------------------|
G|---------------------------|
D|---------------------------|
A|---3---3--4/3--4/3---------|
E|-0-1-0-1--2/1--2/1---------|
[ Tab from: http://www.guitartabs.cc/tabs/s/sky_church/bane_tab.html ]
 staunch!.... (repeat)
e|-------------------------------------------|
B|-------------------------------------------|
G|-------------------------------------------|
D|-3-3-3-3--4-4-4-4--3-3-3-3--4-4-4-4--------|
A|-3-3-3-3--4-4-4-4--3-3-3-3--4-4-4-4--------|
E|-1-1-1-1--2-2-2-2--1-1-1-1--2-2-2-2--------|

 realizing you can't stop it all... X4
e|--------------------  --------------------------|
B|--------------------  -(let ring)--(let ring)---|
G|--------------------  --3-----------3-----------|
D|--------------------  --3-----------3-----------|
A|--9-9-10-9-7-9-7-5--  --1-----------1-----------|
E|--7-7-8--7-5-7-5-3--  --------------------------|

e|-----------------------------------|
B|-----------------------------------|
G|-----------------------------------|
D|-----------------------------------|
A|-----------------------------------|
E|--0-0-0-3-3-3-2-2-2-2-1-1-1-1------|

e|------------------------------------------|
B|------------------------------------------|
G|------------------------------------------|
D|-2-1-1-1-1--2-1-1-1-1--2-1-1-1-1--2-------|
A|-2-1-1-1-1--2-1-1-1-1--2-1-1-1-1--2-------|
E|------------------------------------------|

e|-----------------------------------------|
B|-----------------------------------------|
G|--6-6-6-6-6-6-6-6-6-6-6-6-6-6-6----------|
D|--6-6-6-6-6-6-6-6-6-6-6-6-6-6-6----------|
A|--4-4-4-4-4-4-4-4-4-4-4-4-4-4-4----------|
E|-----------------------------------------|
    X4
e|----------------------------|
B|----------------------------|
G|----------------------------|
D|----------------------------|
A|--9-9-10-9-7-9-7-5----------|
E|--7-7-8--7-5-7-5-3----------|

  final riff
      (bass riff)  as many times
e|-------------------------|
B|-------------------------|
G|-------------------------|
D|-------------------------|
A|-------------------------|
E|--7-8--5-7--5-3----------|

        <<<>>> PLAY IT LOUD!!!
Comments