Skunk Anansie - Weak Intro Chords & Tabs

 

Weak Intro Chords & Tabs

Skunk Anansie Chords & Tabs

Version: 1 Type: Chords 0 ratings
1 star 2 stars 3 stars 4 stars 5 stars
comments

Weak Intro Chords

   
##################################################################################
# This file is the author's own work and represents their interpretation of the  #
# song. You may only use this file for private study, scholarship, or research.  #
##################################################################################

SKUNK ANANSIE : Weak  Tabbed peatle (peatle@web.de)
----------------------------------------------------


Em        D       C
[ Tab from: http://www.guitartabs.cc/tabs/s/skunk_anansie/weak_intro_crd.html ]
E--0-0--3p5-5--|----------------------
A--2-2---------|-3-3-3----------7-----
D--2-2-----0---|-5-5-5------5p7--5----   2x (the same in the refrain)
G--------------|-5-5-5---5p7----------
H--------------|-----3----------------
E--------------|----------------------


Outro:

Em        D       C

E--0-0--3p5-5--|----------------12-12-12-12-12-10--
A--2-2---------|--15p17-17-15---12-12-12-12-12-10--
D--2-2-----0---|--17p19-19-17---14-14-14-14-14-12-- 3x 
G--------------|-----------------------------------
H--------------|-----------------------------------
E--------------|-----------------------------------

Comments