Skunk Anansie - Twisted Chords & Tabs

 

Twisted Chords & Tabs

Skunk Anansie Chords & Tabs

Version: 1 Type: Tab 0 ratings
1 star 2 stars 3 stars 4 stars 5 stars
comments

Twisted Tab

Song: Twisted (Everyday Hurts)
Band: Skunk Anasie
Album: Stoosh
Tab guy: John (childshead)

Intro - Bass

Verse
E----------------------------------------|---------------------------------------|
B----------------------------------------|---------------------------------------|
G--9------------5-------0-4-0-5-0-4/5----|---9------------5-------4---------5/---|
D--9------------5-------0-4-0-5-0-4/5----|---9------------5-------4---------5/---|
A--7------------3-------0-2-0-3-0-2/3----|---7------------3-------2---------3/---|
E----------------------------------------|---------------------------------------|

Verse
E-----------------------------------------|
B-----------------------------------------|
G-----------------------------------------|
D-------------------------------------x2--|
A-----------------------------------------|
E--7--7-5--7--7-5---8--8-7---8--8-7-------|
(Play with a WahWah)

[ Tab from: http://www.guitartabs.cc/tabs/s/skunk_anansie/twisted_tab.html ]
E-----------------------------------------------------------|
B-----------------------------------------------------------|
G--9---9-------5---5-----------2-----4-4-4-4-4-4-0-5-0-4/5--|
D--9----9------5----5----------2-----4-4-4-4-4-4-0-5-0-4/5--|
A--7-----7-----3-----3---------0-----2-2-2-2-2-2-0-3-0-2/3--|
E-----------------------------------------------------------|
                                     (Tell me long, tell me strong)

E------------------------------------------------------------|
B------------------------------------------------------------|
G--9----------------------------2-----4-4-4-4-4-4-0-5-0-4/5--|
D--9----------------------------2-----4-4-4-4-4-4-0-5-0-4/5--|
A--7----------------------------0-----2-2-2-2-2-2-0-3-0-2/3--|
E------------------------------------------------------------|


Skin is GOD!
I'm sorry I didn't tab the solo; just make it up! All Corrections and comments to
childshead@hotmail.com enjoy! (if you work out the solo mail me it)
Take It Easy,
             John
Comments