Skunk Anansie - The Skank Heads Chords & Tabs

 

The Skank Heads Chords & Tabs

Skunk Anansie Chords & Tabs

Version: 1 Type: Tab 0 ratings
1 star 2 stars 3 stars 4 stars 5 stars
comments

The Skank Heads Tab

   
The Skank Heads
Skunk Anansie
From Post Orgasmic Chill

Intro/Main Riff:
e|----------------|
B|----------------|
G|----------------|
D|-------5-----3--|
A|----------------|
E|--3--3---3-3----|

bass enters after 4th time, 4th time plays this:
G|---------12-121212-15--|
D|-----------------------|
A|--10--10---------------|
E|-----------------------|
play 16 times

Chorus:
e|-------------------------------|
B|-------------------------------|
G|----------------9--10--11--12--|
D|-10----------------------------|
A|----------------7---8---9--10--|
E|--8----------------------------|

G5 F5 4X

e|----------------------------|
B|----------------------------|
G|--5-------------5--2--3-----|
D|-------------------------5--|
A|--3-------------------------|
E|----------------------------|
[ Tab from: http://www.guitartabs.cc/tabs/s/skunk_anansie/the_skank_heads_tab.html ]
G5 F5 8X

back to intro riff
on 4th time play this variation:
e|-----------------|
B|-----------------|
G|-----------------|
D|-------5---0-3-3-|
A|-----------------|
E|--3--3---3-------|
repeat inro riff 16X

Chorus

Interlude


Bridge:
e|------------------|
B|------------------|
G|------------------|
D|------------------| 
A|--3-4-5--5-5-5-5--| X3
E|------------------|

e|---------------------|
B|---------------------|
G|---------------------|
D|---------------------| 
A|--3-4-5--5-3-3-1-1-0-| 
E|---------------------|

G5 F5 
play 4 times muting
play 8 times normally, then

G5 A#5. A#5 F5 
then play 3 more times normally before the last three chords to end the song
G5 A#5 G5

Please send corrections/additions to lezzwaf@yahoo.co.nz
Comments