Skunk Anansie - Secretly Chords & Tabs

 

Secretly Chords & Tabs

Skunk Anansie Chords & Tabs

Version: 1 Type: Tab 0 ratings
1 star 2 stars 3 stars 4 stars 5 stars
comments

Secretly Tab

I can't figure out the verses, but this is my take on the solo, bridges and
choruses. They don't match perfectly to the actual song, but they do fit
[slightly]:

-------------------------------------------------------------------------------
			     SECRELY - Skunk Anansie
-------------------------------------------------------------------------------

By: Jeanne 

[BRIDGE]

e|---------------------------------------------------------------------------|
B|---------------------------------------------------------------------------|
G|---------------------------------------------------------------------------|
D|---6------------8------------9---------11----------------------------------|
A|---------------------------------------------------------------------------|
E|---------------------------------------------------------------------------|
  So now you feel rusty You're bored and bemused, you wanna do ...

[CHORUS]

e|------------0---------------------------------------------------------0----|
B|------------0---------------------------------------------------------0----|
G|--------6---1-----[keep it going]-----8----6-------4--------3---------1----|
D|-4------6---2----------------------4--8----6-------4--------3---------2----|
A|-4------4---2----------------------4--6----4-------2--------1---------2----|
E|-2----------0----------------------2----------------------------------0----|
   Some - one else, So you should be By your-self, Instead of here with me ..

[SOLO]    

e|---------------------------------------14--13------------------------------|
B|-----------------------------------14----------14--------------------------|
G|-------------------------------13------------------13----------------------|
D|-8--8--10--11--10--11--13--11----------------------------------------------|
A|---------------------------------------------------------------------------|
E|---------------------------------------------------------------------------|
[ Tab from: http://www.guitartabs.cc/tabs/s/skunk_anansie/secretly_tab.html ]
e|---------------------------------------------------------------------------|
B|-11--11--13--14--13--14--16--14--6--7--6--7--6--9--------------------------|
G|---------------------------------------------------------------------------|
D|---------------------------------------------------------------------------|
A|---------------------------------------------------------------------------|
E|---------------------------------------------------------------------------|

[LAST BRIDGE] 

e|---------------------------------------------------------------------------|
B|---------------------------------------------------------------------------|
G|---------------------------------------------------------------------------|
D|---8---------------10------------11-------------13-------------------------|
A|---------------------------------------------------------------------------|
E|---------------------------------------------------------------------------|
  So now you've been busted You're caught feeling used, you had to do ...


e|---------------------------------------------------------------------------|
B|---------------------------------------------------------------------------|
G|--------8---3----6-----5--------------10----8----6-----5-------------------|
D|-6------8---3----6-----5------------6-10----8----6-----5-------------------|
A|-6------6---1----4-----3------------6--8----6----4-----3-------------------|
E|-4----------------------------------4--------------------------------------|
   Some - one else,  You shoulda been by your-self,  you had to do 


e|---------------------------------------------------------------------------|
B|---------------------------------------------------------------------------|
G|--------8---3----6-----5--------------10----8-------6--------5---------3---|
D|-6------8---3----6-----5------------6-10----8-------6--------5---------3---|
A|-6------6---1----4-----3------------6--8----6-------4--------3---------1---|
E|-4----------------------------------4--------------------------------------|
   Some - one else,  You shoulda been by your-self, instead of here with me


===============================================================================
Comments