Skunk Anansie - Secretly Chords & Tabs

 

Secretly Chords & Tabs

Skunk Anansie Chords & Tabs

Version: 1 Type: Bass Tab 0 ratings
1 star 2 stars 3 stars 4 stars 5 stars
comments

Secretly Bass Tab

   
Song   : Secretly
Artist : Skunk Anansie
Album  : Post Orgasmic Chill
Tuning : Standard (E,A,D,G)

Transcribed by: KIXX (ecy69@netscape.net)
		    A proud member of BTA Tabbing army 

	This song's bass line is composed of many long, ringin'
notes which makes timing somewhat hard. You should use a fuzz 
with phaser effect added and crank up the bass and lo-mid in your
amp to get the tone used in the song.

Intro:

|------------------------|
|------------------------|
|--2~~-------2~~---------|
|-------3~--------3------|

Verse:

|-----------------------------------------------------------|
|-----------------------------------------------------------|
|--2---------2--------------2/7---10-2--------2-------------|
|-------3--------3-----0------------------3-------3---0---3-|

Bridge 1:                          Bridge 2:
[ Tab from: http://www.guitartabs.cc/tabs/s/skunk_anansie/secretly_btab.html ]
|-----------------------|          |-----------------------| 
|---(6)-(5)-(4)-(3)-----|          |-----------------------|
|-----------------------|          |--1---0----------------|
|--4----3---2---1-------|          |-----------4~---(3)----|

Chorus 1:

|-------------------------------------------------------|
|------1-4-(2)------------------------------------------|
|----2------(2)-------6--4------------------------------|
|------------0~-----4-------0----4--3---0~--------------|

Chorus 2:

|------------------------------|            |-----------|
|------------------------------|   x2 then, |-----------|
|---4-(3)---------4--(3)-------|            |--2--------|
|-----(1)--4--2------(1)--0--2-|            |-----0-----| 

Solo:

|-----------------------|
|-----------------------|
|--1--------1-----------|
|-----1--2-----1--2-----|

Outro:

|-------------------------------------------------------|
|-------------------------------------------------------|
|-------4--0----4---0-4---0----4---0--------------------|
|--2----------------------------------------------------|

Comments