Skunk Anansie - Pickin On Me Chords & Tabs

 

Pickin On Me Chords & Tabs

Skunk Anansie Chords & Tabs

Version: 1 Type: Tab 0 ratings
1 star 2 stars 3 stars 4 stars 5 stars
comments

Pickin On Me Tab

-----------------------------------------------------------
			 PICKIN ON ME - Skunk Anansie
-----------------------------------------------------------

By: fxgirl

     Verse
e|-----2p0-----------2p0------------3p0--------------5p0---|
B|---------0-------------0--------------1---------------3--|
G|-----------0-------------0--------------0---------------0|
D|---------------------------------------------------------|
A|-----------------------------3-3-----------5-5-----------|
E|-0-0----------0-0----------------------------------------|
[ Tab from: http://www.guitartabs.cc/tabs/s/skunk_anansie/pickin_on_me_tab.html ]
        Chorus
e|-----2p0-----------2p0------------2p0-----------2p0------|
B|---------3-------------3-------------0-------------0-----|
G|-----------2-------------0-------------0-------------0---|
D|-0-0-----------------------------------------------------|
A|---------------3-3---------------------------------------|
E|-----------------------------0-0----------0-0------------
     
   Chorus last time                                         *harmonic   
e|-----2p0-------------2p0-----------------------*12-------|
B|---------3---------------3---------------------*12-------|
G|-----------2---------------0-----------------------------|
D|-0-0-----------------------------------0h2---------------|
A|----------------3-3----------------0h2-------------------|
E|-------------------------------0h3----------0------------|
Comments