Skunk Anansie - Little Baby Swastikka Chords & Tabs

 

Little Baby Swastikka Chords & Tabs

Skunk Anansie Chords & Tabs

Version: 2 Type: Bass Tab 0 ratings
1 star 2 stars 3 stars 4 stars 5 stars
comments

Little Baby Swastikka Bass Tab

Skunk Anansie - Little baby Swastikka.
>From Paranoid and Sunburnt.
Bass tabs


Intro:

G |---------------|
D |---------------|    means let the note ring
A |42---------|
E |------431|

Verse:

G |----------|
D |*--------*|   Replace the last G with a high A harmonic
A |*------2-*|   every four bars.
E |-00-013-3-|   On the second verse there's a E |-0/10\0 thing.

                 Just work it out :)

The run at the end of the verse:

G |-----------------|
D |5h7p5------------|   I'm not sure but it sounds *almost*
A |-----5h7p5-------|   right.
E |----------5h7p5-3|

Pre-chorus:
[ Tab from: http://www.guitartabs.cc/tabs/s/skunk_anansie/little_baby_swastikka_btab_ver_2.html ]
G |--- - ------|
D |*-- - -----*|   Brackets mean you don't have to play the note
A |*--(3)---2-*|
E |-00 - 013-3-|

Chorus:
G |----------------------------------|
D |----------------------------------|
A |2-2-2-2-2-0-0-0-0-0----------55555|
E |--------------------3-3-3-3-3-----|

Then it's back to the Pre-chorus for a bit and then the intro.

The solo (or something like it):

G |------------------------------------7-|
D |*5h7p5--------------5h7p5------------*|
A |*-----5h7p5--------------5h7p5-------*|
E |-----------5h7p5-3------------5h7p5---|

This isn't perfect, but it's close enough if you ask me. If it's not,
mail me at itchytasty@tesco.net with corrections.
Comments