Skunk Anansie - Hedonism Chords & Tabs

 

Hedonism Chords & Tabs

Skunk Anansie Chords & Tabs

Version: 5 Type: Tab 0 ratings
1 star 2 stars 3 stars 4 stars 5 stars
comments

Hedonism Tab

#----------------------------------PLEASE NOTE---------------------------------#
#This file is the author's own work and represents their interpretation of the #
#song. You may only use this file for private study, scholarship, or research. #
#------------------------------------------------------------------------------#

Date: Tue, 04 Nov 1997 21:16:14 +0100
From: Mats Eriksson 
Subject: TAB:Hedonism_SOLO by Skunk Anansie

Hi,

I thought that the solo of Hedonism
was missing, so here it is. I hope
that it's correct, my first try of
tabbing down a solo.

/Mats Eriksson, frv97men@mds.mdh.se
Guitarist without a band.


                  * Hedonism Solo * , Skunk Anansie


Tune down 1/2 step.

    x   .   x   .   x   .   x   .
e:----------------------------------:    Do some naughty things with
B:----------7-----------9-----9-----:    you Wah Wah-pedal whilst u
G:----------8-------6-8---6-8---6-8-:    play this!
D:--6---6---------------------------:
A:----------------------------------:
E:----------------------------------:
[ Tab from: http://www.guitartabs.cc/tabs/s/skunk_anansie/hedonism_tab_ver_5.html ]
    x       .       x       .       x       .       x       .
e:--14--11----------------------------------------------------------:
B:--------------14--11------12--11----------------------------------:
G:--------------------------------------13--11-------------11-------:
D:-------------------------------------------------13---------------:
A:------------------------------------------------------------------:
E:------------------------------------------------------------------:

play First Part again....

    x   .   x   .   x   .   x   .
e:----------------------------------:
B:--9-7---7-----9-7---7-----9-7-----:
G:------8-----------8-----------8---:
D:----------------------------------:
A:----------------------------------:
E:----------------------------------:

play First Part again....

play Second Part!!

    x   .   x   .   x   .   x   .      x   .   x   .   x   .   x   .
e:----------------------------------:--9-9-9-9-9-9-9-9-9-9-9-9-9-9-9-9--:
B:----------7-----------9-----9-----:-----------------------------------:
G:----------8-------6-8---6-8---6-8-:-----------------------------------:
D:--6---6---------------------------:-----------------------------------:
A:----------------------------------:-----------------------------------:
E:----------------------------------:-----------------------------------:


Please tell me what you think about it.

frv97men@mds.mdh.se
Mats Eriksson
(Hendrix on IRC)
Comments