Skunk Anansie - Hedonism Chords & Tabs

 

Hedonism Chords & Tabs

Skunk Anansie Chords & Tabs

Version: 2 Type: Tab 0 ratings
1 star 2 stars 3 stars 4 stars 5 stars
comments

Hedonism Tab

#-----------------------------PLEASE NOTE-------------------------------------#
#This OLGA file is the author's own work and represents their interpretation  #
#of the song. You may only use this file for private study, scholarship, or   #
#research. Remember to view this file in Courier, or other monospaced font.   #
#See http://www.olga.net/faq/ for more information.                           #
#-----------------------------------------------------------------------------#

From: "Wolfgang Schnerring" 
Subject: s/skunk_anansie/hedonism.tab
Date: Tue, 8 Sep 1998 15:32:26 +0200

Hedonism - Skunk Anansie
======================

This is a more detailed TAB of the song, partly based
on what was already in OLGA.

Notation info: () means play softly, just like an echo.

Intro (clean tone, with a bit of delay and reverb):

(Riff #1:)     no bar but a riff mark
e|--------------(9)----------8----8---------------|
h|---------9---------8h9-11-10-(10)-(10)---|
g|--------10---------------------------------------|
D|--------------------------------------------------|
A|-8-8---------------------------------------------|
E|---------------------------------------------------|

(Riff #2:)
e|---------------------------------------------|
h|---------------------------------------------|
g|----------8---------------8-(8)-(8)-(8)--|
D|------8---------------8--------------------|
A|-10----------8h10-----------------------|
E|---------------------------------------------|

e|----------------(9)----------8----8---------------|
h|-----------9---------8h9-11-10-(10)-(10)---|
g|----------10---------------------------------------|
D|----10--------------------------------------------|
A|-8-------------------------------------------------|
E|----------------------------------------------------|

e|-----------------------------------------------|
h|-----------------------------------------------|
g|----------8--------------------8h10p8-----|
D|------8---------------8h10--------------8-|
A|-10----------8h10-------------------------|
E|-----------------------------------------------|
    I hope you're feeling

Verse 1

[ Tab from: http://www.guitartabs.cc/tabs/s/skunk_anansie/hedonism_tab_ver_2.html ]
e|---------------------------------------|
h|---------------------------------------|
g|--------8----8h10p8---------------|
D|-----8-------------------8h10p8---|
A|-10-----------------------------------|


e|--------------------------------------------------------------------------
B|--------------------------------------------------------------------------
G|------------12p10------10------12p10-----10------12p10-----------|
D|-12p10------------12------10----------12------10-----------12p10-|
A|--------------------------------------------------------------------------
E|--------------------------------------------------------------------------


>Riff #5

e|-------------13p10------------------------------------------------------|
B|------------------------13p10-11p10---------------------------------|
G|----------------------------------------------12p10----------------10--|
D|-10h12----------------------------------------------10-10h12------|
A|--------------------------------------------------------------------------
E|--------------------------------------------------------------------------


>Riff #5

e|-----------------------------------------------------------------|
B|------------13-13-13-13--all in all 15 times, the 16th is a 13---|
G|-------------------------------with glissando down the neck------|
D|-10-10-----------------------------------------------------------|
A|-----------------------------------------------------------------|
E|-----------------------------------------------------------------|
  Just because you

Chorus (distorsion):

Verse 3:

(Riff #6:)
e|-----------------(10)---------------10-10---------------|
h|-----------11-----------10h11---13-11--(11)-(11)-|
g|-----------12-----------------------------------------------|
D|-------------------------------------------------------------|
A|-10-10----------------------------------------------------|
E|-------------------------------------------------------------|


(Riff #7:)
e|------------------------------------|
h|------------------------------------|
g|----------10------------------10-|
D|-----10-----------------10-------|
A|-12------------10h12-----------|
E|------------------------------------|


e|--------------|
h|--------------|
g|----------10-|
D|-----10------|
A|-12----------|
E|---------------|

Transcribed by Wolfgang Schnerring,
wosc@bigfoot.com
Comments