Skunk Anansie - Follow Me Down Chords & Tabs

 

Follow Me Down Chords & Tabs

Skunk Anansie Chords & Tabs

Version: 1 Type: Tab 0 ratings
1 star 2 stars 3 stars 4 stars 5 stars
comments

Follow Me Down Tab

SKUNK ANANSIE

SONG: FOLLOW ME DOWN - ACOUSTIC PART

ALBUM: POST ORGASMIC CHILL

TABBED BY: ULTRAPEDRO

VERSE:
--0--0---0-0-0--0--0---0-0-0--0--0---0-0-0--3--3---3-3-3--
--1----1-1-1-1--0----0-0-0-0--1----1-1-1-1--3----3-3-3-3--
--2----2-2-2-2--0----0-0-0-0--2----2-2-2-2--0----0-0-0-0--
--3-------------2-------------3-------------0-------------
--3-------------2-------------3-------------2-------------
----------------0---------------------------3-------------


--0--0---0-0-0--0--0---0-0-0--0--0---0-0-0--0--0---0-0-0--
--1----1-1-1-1--0----0-0-0-0--1----1-1-1-1--0----0-0-0-0--
--2----2-2-2-2--0----0-0-0-0--2----2-2-2-2--1----1-1-1-1--
--3-------------2-------------3-------------2-------------
--3-------------2-------------3-------------2-------------
----------------0---------------------------0-------------

BRIDGE

--0--0---0-0-0--2--2---2-2-2--0--0---0-0-0--0--0---0-0-0--
--1----1-1-1-1--3----3-3-3-3--1----1-1-1-1--0----0-0-0-0--
--2----2-2-2-2--2----2-2-2-2--2----2-2-2-2--1----1-1-1-1--
--2-------------0-------------3-------------2-------------
--0---------------------------3-------------2-------------
--------------------------------------------0-------------

REFRÃO
[ Tab from: http://www.guitartabs.cc/tabs/s/skunk_anansie/follow_me_down_tab.html ]
--0-----0-------0-----0-------0-----0--------------------
--1-------1-----3-------3-----0-------0---------1-----1--
--0---0----0----0---0----0----1---1----1-------2-----2---
--2-2--------2--0-0-----------2-2--------2----2-----2----
--3-------------2----------2--2-------------0------3-----
------------------------------0--------------------------

--0-----0-------2-----2-------3--------------
--1-------1-----1-------1-----3--------------
--2---2----2----2---2----2----0--------------
--3-3--------3--0-0--------0--0--------------
--3---------------------------2--------------
------------------------------3--------------

BREAK DOWN

---------1-----------0--------------0-------------3------
-------3---3-------1---1----------0---0---------3---3----
------3------3----2------2------0-------0------0------0--
----3------------2-------------2--------------0----------
--1-------------0----------------------------------------
------------------------------0--------------3-----------

---------1-----------0--------------0--------0-----------
-------3---3-------1---1----------0---0------0-----------
------3------3----2------2------0------------1-----------
----3------------2-------------2-------------2-----------
--1-------------0----------------------------2-----------
------------------------------0--------------0-----------

END PART

--------0-----0------------
------1---1---3------------
----2---------1------------
--3-----------X------------
--------------2------------
--------------0------------

FOR CORRECTIONS WRITE TO: ULTRAPEDRO@IOL.PT
Comments