Skunk Anansie - Charlie Big Potato Chords & Tabs

 

Charlie Big Potato Chords & Tabs

Skunk Anansie Chords & Tabs

Version: 1 Type: Tab 0 ratings
1 star 2 stars 3 stars 4 stars 5 stars
comments

Charlie Big Potato Tab

   
SKUNK ANANSIE

SONG:CHARLIE BIG POTATO

ALBUM:POST ORGASMIC CHILL

TABBED BY: ULTRAPEDRO



RIFF A                      RIFF B
--------------------------||--------------------------
--------------------------||--------------------------
---------9-------------9--||---------7-------------7--
---6-6-6-7--6-6--6-6-6-7--||---4-4-4-5--4-4--4-4-4-5--
---4-4-4----4-4--4-4-4----||---2-2-2----2-2--2-2-2----
--------------------------||--------------------------

RIFF C               RIFF D
-------4--------5--||-----------------------------
-------4--------5--||-------------------24\\\\\\--
-------6--------6--||-----------------------------
---6---------7-----||-----------------------------
---4---------------||-----------------------------
----------5--------||---0\\\\\\\\\\\\-------------

RIFF E
------------------------------------------------
------------------------------------------------
---------9--------9--------9--------9-----------
---6-6-6-7--6-6-6-7--6-6-6-7--6-6-6-7--8/9\8~~--
---4-4-4----4-4-4----4-4-4----4-4-4----6/7\6~~--
------------------------------------------------
[ Tab from: http://www.guitartabs.cc/tabs/s/skunk_anansie/charlie_big_potato_tab.html ]
RIFF F
---------------------------------------------------------
---------------------------------------------------------
-----------9----------9----------9----------9~-----------
---6-6-6-6-7--6-6-6-6-7--6-6-6-6-7--6-6-6-6-7~--8/9\8~~--
---4-4-4-4----4-4-4-4----4-4-4-4----4-4-4-4-----6/7\6~~--
---------------------------------------------------------

RIFF G
--------------------------
--------------------------
--------------------------
---5-5-5-6-5-5-6-6-5-6-5--
---3-3-3-4-3-3-4-4-3-4-3--
--------------------------

SONG:

INTRO - RIFF A  X4

VERSE - RIFF A  X4
        RIFF B  X2
        RIFF A  X6
        RIFF B  X2
        RIFF A  X2

BRIDGE- RIFF C  X8

VERSE 2-RIFF A  X4
        RIFF B  X2
        RIFF A  X6
        RIFF B  X2
        RIFF A  X2

BRIDGE- RIFF C  X8

BREAK DOWN - RIFF D

END PART - RIFF E  X4
           RIFF F  X2
           RIFF G  X1
           RIFF C  X6
           RIFF A  X8

I HOPE YOU ENJOY IT. FOR CORRECTIONS WRITE TO: ULTRAPEDRO@IOL.PT
Comments