Skunk Anansie - Charity Chords & Tabs

 

Charity Chords & Tabs

Skunk Anansie Chords & Tabs

Version: 1 Type: Tab 0 ratings
1 star 2 stars 3 stars 4 stars 5 stars
comments

Charity Tab

   
#----------------------------------PLEASE NOTE---------------------------------#
#This file is the author's own work and represents their interpretation of the #
#song. You may only use this file for private study, scholarship, or research. #
#------------------------------------------------------------------------------##
From: "CHRISTOPHER.JOHNSON@NCL" 
Date:          Sat, 21 Oct 1995 10:51:55 GMT0BST
Subject:       TAB : Charity by Skunk Anansie

This is my attempt at transcribing Charity by Skunk Anansie.  It's 
the first time I've sent anything to you, so i hope I'm doing it 
right.  The spacing may not appear right as I send this to you, it 
was written in New Courier font, I think.  If there is a better way 
to write tab please reply.                        

 Charity - Skunk Anansie

My first attempt at transcription, so don't expect perfection - any
constructive comments can be mailed to christopher.johnson@ncl.ac.uk.
There is no form of timing shown in this, so listen to the record.
[ Tab from: http://www.guitartabs.cc/tabs/s/skunk_anansie/charity_tab.html ]
Chords Used
         E  A  D  G  B  E
  A     -X  0  2  2  2  0
  C#m   -X  4  6  6  5  4
  E?    -X  0  14 0  12 0
  F#    -2  4  4  3  2  2
  G     -3  5  5  4  3  3
  Csus2 -X  3  5  5  3  3

Riff
   A              C#m      E?                                  
|--0---0-0-0---0-0-4---4-4-0--0--0-----------
|--2---2-2-2---2-2-5---5-5-12-12-12----------
|--2---2-2-2---2-2-6---6-6-0--0--0-----------
|--2---2-2-2---2-2-6---6-6-14-14-14----------
|--0---0-0-0---0-0-4---4-4-0--0--0-----------
|--------------------------------------------

Fig.1
   A     C#m    A     C#m    A     C#m
|-----0------------0------------0---------------
|----2-2----5-----2-2----5-----2-2----5---------
|---2------6-6---2------6-6---2------6-6--------
|--2------6-----2------6-----2------6-----------
|--------4------------4------------4------------
|-----------------------------------------------


(Play Riff x4)

Comments