Skunk Anansie - Brazen Chords & Tabs

 

Brazen Chords & Tabs

Skunk Anansie Chords & Tabs

Version: 2 Type: Tab 0 ratings
1 star 2 stars 3 stars 4 stars 5 stars
comments

Brazen Tab

   
----------------------------------------------------------------------------
			     Skunk Anansie - Brazen (WEEP)
----------------------------------------------------------------------------
Tabbed by:Kev 
Email:talk_tonight100@yahoo.co.uk

Tuning:E A D G B E



  INTRO  and VERSES

e|--3------2--0---3-----3-----|---------------------------|---3-----------|
B|----0-------------0-----0---|---------------------------|---0-----------|
G|------0-------------0-----0-|--x amount of times--------|---0-----------|
D|--2------0------------------|---------------------------|---2-----------|
A|--------------3-------------|----then finish inro with -|---3-----------|
E|----------------------------|---------------------------|---------------|


  BRIDGE 
   
    
   Bmin                B7
e|--2------------------2--------------------------------------------------|
B|--3------------------4--------------------------------------------------|
G|--4--Arpeggiated-----2--arpeggiated-------------------------------------|
D|--4------------------4--------------------------------------------------|
A|--2------------------2--------------------------------------------------|
E|------------------------------------------------------------------------|
   ooooohhhhhhhh     oohhohhh why dont you 
  


   CHORUS 
[ Tab from: http://www.guitartabs.cc/tabs/s/skunk_anansie/brazen_tab_ver_2.html ]
       why dont you weep..........         nah nah nah nah nah........

    Em   D    Em   D    C    G    Am       Em    D     C      C
e|--0----2----0----2----0----3----0----|---0-----2-----0------0-----------|
B|--0----3----0----3----1----3----1----|---0-----3-----1------1-----------|
G|--0----2----0----2----0----0----2----|---0-----2-----0------0-----------|
D|--2----0----2----0----2----0----2----|---2-----0-----2------2-----------|
A|--2---------2---------3----x----0----|---2-----------3------3-----------|
E|--0---------0--------------3---------|---0------------------------------|


   AFTER 2nd CHORUS THERES A BUILD UP WHICH IS JUST

     B7
e|---2-----------------------------------------------------------------|
B|---4-----------------------------------------------------------------|
G|---2-----------------------------------------------------------------|
D|---4-----------------------------------------------------------------|
A|---2-----------------------------------------------------------------|
E|---------------------------------------------------------------------|

   that goes into 3rd chorus and then the Outro is the same as intro

| /  slide up
| \  slide down
| h  hammer-on
| p  pull-off
| ~  vibrato
| +  harmonic
| x  Mute note
=========================================================================
Comments