Skunk Anansie - Brazen Chords & Tabs

 

Brazen Chords & Tabs

Skunk Anansie Chords & Tabs

Version: 1 Type: Tab 0 ratings
1 star 2 stars 3 stars 4 stars 5 stars
comments

Brazen Tab

   
Skunk Anansie 

Brazen (weep) from Stoosh

tabbed by Tim Morris

Intro & verse:
   Em   D    Cmaj7
e--3----2-0----3---3----}   --3----2-0--3---
B---0-----------0---0---}   ---0--------0---
G----0-----------0---0--}   ----0-------0---
D--2----0---------------}   --2----0----2---
A------------3----------}   ------------3---
E-----------------------}x3 ----------------

[ Tab from: http://www.guitartabs.cc/tabs/s/skunk_anansie/brazen_tab.html ]
pre-chorus:
   Bm7                    B7
e--------2----------2---------2-----------2-----
B-----3---3-3----3---3-3---4---4-4-----4---4-2--
G----2-2---2----2-2---2---2-2---2-----2-2---2---
D-----------------------------------------------
A--2----------2-----------2---------2-----------
E-----------------------------------------------

Chorus:
Em  D (then Dsus4)  x3

C   D

"nah nah..."
Em  D  C

Comments