Skrillex - Scary Monsters And Nice Sprites Chords & Tabs

 

Scary Monsters And Nice Sprites Chords & Tabs

Skrillex Chords & Tabs

Version: 6 Type: Tab 0 ratings
1 star 2 stars 3 stars 4 stars 5 stars
comments

Scary Monsters And Nice Sprites Tab

   
-------------------------------------------------------------------------------
             Scary Monsters and Nice Sprites (Intro) - Skrillex
-------------------------------------------------------------------------------
Tabbed by: Kushal Ranjan
Email: sporkman7@gmail.com

Tuning: Standard(EADGBe)


A:
  Eb                        F/A
e|-----------------------10---------------------------|
B|--------------11----------13-11---------------------|
G|-----12-10-12-------12----------------------10------|
D|--------------------------------10-------------13---|
A|--------------------------------------10-13---------|
E|----------------------------------------------------|
  Gm7                                   F/A
e|--------------------------15-10-------13-10---------|
B|--------------------------------11----------11------|
G|-----------10----------------------12----------10---| x4
D|--12-10----------------12---------------------------|
A|--------13----13-10-13------------------------------|
E|----------------------------------------------------|

Repeat chords throughout
[ Tab from: http://www.guitartabs.cc/tabs/s/skrillex/scary_monsters_and_nice_sprites_tab_ver_6.html ]
B:
e|--------------------------------------------------------------------|
B|--------------6-----------------------------------------------------|
G|---------------------------7------7-7-7-5-----------5-7-8-----------|
D|--8-------------------------------------------8---------------------|
A|--------------------------------------------------------------------|
E|--------------------------------------------------------------------|

First ending:
e|----------------------------------------------------|
B|--------------------------6-------------------------|
G|--7-------------------------------------------------|
D|--------8--8--8-----8-----------8--8--8--7--7--5----|
A|----------------------------------------------------|
E|----------------------------------------------------|

Second ending:            "YES, OH MY GOSH"
e|----------------------------------------------------|
B|--6-----------------------6-------------------------|
G|----------------------------------------------------|
D|--------8--8--8-----8-------------------------------|
A|----------------------------------------------------|
E|----------------------------------------------------|


************************************

| /   slide up
| \   slide down
| h   hammer-on
| p   pull-off
| ~   vibrato
| +   harmonic
| x   Mute note
| B   Bend
| pb  Pre-bend
| br  Bend release
| pbr Pre-bend release
| brb Bend release bend

************************************





Comments