Skrillex - Scary Monsters And Nice Sprites Chords & Tabs

 

Scary Monsters And Nice Sprites Chords & Tabs

Skrillex Chords & Tabs

Version: 5 Type: Tab 0 ratings
1 star 2 stars 3 stars 4 stars 5 stars
comments

Scary Monsters And Nice Sprites Tab

----------------------------------------------------------------------------
	        Scary Monsters And Nice Sprites - Skrillex
----------------------------------------------------------------------------


Tabbed by:Joey Bear
Email: Joeyg00_13@hotmail.com

Tuning:EADGBe

e|-----------------------------------------------------5-------3------------|
B|-------------5------------------------------------------5-----------------|
G|--------5-------7--5--------------------------------------5-----5---------|
D|--7-5-7----7-------------------5-3-2------5-------2---------7-----7-5-----|
A|--------------------------5-3---------5-3---3---3-------------------------|
E|-----------------------3----------------------5---------------------------|
[ Tab from: http://www.guitartabs.cc/tabs/s/skrillex/scary_monsters_and_nice_sprites_tab_ver_5.html ]
e|--------------------------------------------------------------------------|
B|---8---5---5-5-6-5-----------5-6---5-8----------------8-------------------|
G|-5-------------------7--5-7-------------5-5-5---5-5------5-5-5-7-5--4--2--|
D|--------------------------------------------------------------------------|
A|--------------------------------------------------------------------------|
E|--------------------------------------------------------------------------|

e|--------------------------------------------------------------------------|
B|---8---5--5-6-5---------5-6---5-8-----------------------------------------|
G|-5---------------7--5-7------------5-5-5--5-5---5---9----2--4--5---2-2----|
D|--------------------------------------------------------------------------|
A|--------------------------------------------------------------------------|
E|--------------------------------------------------------------------------|


e|--------------------------------------------------------------------------|
B|-------5------------------------------------------------------------------|
G|-2--5----5----2--2-4-5-------7--5---9---9--7--9---12----5-----------------|
D|------------------------5-5-----------------------------------------------|
A|--------------------------------------------------------------------------|
E|--------------------------------------------------------------------------|
Comments