Skrillex - Scary Monsters And Nice Sprites Chords & Tabs

 

Scary Monsters And Nice Sprites Chords & Tabs

Skrillex Chords & Tabs

Version: 13 Type: Tab 0 ratings
1 star 2 stars 3 stars 4 stars 5 stars
comments

Scary Monsters And Nice Sprites Tab

Official skillrex website
http://www.skrillex.com/

Hello, I'm William and this is the first tab i've written. The main part I just took off
other's tabs but i just edited it to what i think the song sounds like. The bridge is
done completely by ear and took me a while. Bends and vibratos also sound great at notes
that aren't as connected to other notes as the melody. Feedback to lonelybanana9@gmail.com

Drop D tuning

Main Part ( plays throughout the whole song)
E|-----------------------------------------------------------------------------|
B|--------------------------15-------------------------------------------------|
G|------------------15~---------17--15------15--14-----------------------------|
D|-/17--17--15--17------17--------------15~---------15--13--12----------15-----|
A|--------------------------------------------------------------15--13------13-|
D|-----------------------------------------------------------------------------|
[ Tab from: http://www.guitartabs.cc/tabs/s/skrillex/scary_monsters_and_nice_sprites_tab_ver_13.html ]
E|-------------15-------------------------------|
B|-----------------15----------18--15-----------|
G|----------------------15--------------15------|
D|----------12--------------17--------------17--|
A|-10--13---------------------------------------|
D|----------------------------------------------|


Chorus
E|---1-------------------------------1---------------1-----------------------|
B|-----3-3-3-1---1-3h4p3-------------------------------3-3-3-1---1-3/4-4/6---|
G|-3-----------3---------3-3-3-3-3-3---3-3h5p3-2p0-3-----------3-------------|
D|---------------------------------------------------------------------------|
A|---------------------------------------------------------------------------|
D|---------------------------------------------------------------------------|

Dubstep part ( comes right after Chorus )
E|---------------------------------|
B|---------------------------------|
G|---------------------------------| x3
D|--12\0--------5---5---6---6---6--|
A|--12\0---8*~--5---5---6---6---6--|I suggest listening to the song for the
D|--12\0--------5---5---6---6---6--| correct harmonic. I think this sounds ok

Email is lonelybanana9@gmail.com if you find any errors.

After the dubstep part is the chorus but stops on the note just before the 15 on
the 'e' string.
Comments