Skrillex - Make It Bun Dem Chords & Tabs

 

Make It Bun Dem Chords & Tabs

Skrillex Chords & Tabs

Version: 2 Type: Tab 1 rating
1 star 2 stars 3 stars 4 stars 5 stars
comments

Make It Bun Dem Tab

Standard tuning

If you wanna play the background guitar: Reggae!

    e--------7--------7--------7-----------7--------------------|
    B--------10-------10-------10----------10-------------------|
    G--------11-------11-------11----------11-------------------|
    D--------11-------11-------11----------11-------------------|
    A--------7--------7--------7-----------7--------------------|
    E--------7--------7--------7-----------7--------------------|


Verse: We mash up the place...make it bun dem (Not the exact numeber of times at each 
note but listen to the song  and you'll get it)
e---------------------------------------------------|
B---------------------------------------------------|
G------------------------------6-6-6-6-7-6-4--------|
D----4-4-4-4-4-4-4--2--5--4-------------------7--4--|
A---------------------------------------------------|
E---------------------------------------------------|




Dubstep:
e-----------------------------------------------------------------------------------|
B-----------------------------------------------------------------------------------|
G---11--11--11--11-11-11-11-11--9-9-9-12-12-12-11-11-11-------11---11--11--11---11--|
D-----------------------------------------------------------------------------------|
A-----------------------------------------------------------------------------------|
E-----------------------------------------------------------------------------------|




[ Tab from: http://www.guitartabs.cc/tabs/s/skrillex/make_it_bun_dem_tab_ver_2.html ]
e-----------------------------------------------------------------|
B-----------------------------------------------------------------|
G------6-6-6-6-6----4-4-4-5-5-5-4-4-4-----4-4-4----4-4-4----------|
D-----------------------------------------------------------------|
A-----------------------------------------------------------------|
E-----------------------------------------------------------------|





rap:
e-----------------------------------------------------------------|
B-----------------------------------------------------------------|
G-----------------------------------------------------------------|
D-------4-4-4-4-4-4-4-4-4-4-4--4--4--4--4-------------------------| ALL THE
A-----------------------------------------------------------------|  way
E-----------------------------------------------------------------|



The bright dubstep
e-------------------------------------------------------|
B---------------------------15-15-15--------------------|
G--------11-11-11-11-11-11-----------12-12-12-11--11-11-|
D-------------------------------------------------------|
A-------------------------------------------------------|
E-------------------------------------------------------|


e--------------------------------------------------------------------------|
B--------------------------------------------------------------------------|
G--------------------------------14-14-14----------------------------------|
D---------11-11-11-11-11-11-11-------------12-12-12--11--11--11--11--11----|
A--------------------------------------------------------------------------|
E--------------------------------------------------------------------------|
Comments