Skrillex - Make It Bun Dem Chords & Tabs

 

Make It Bun Dem Chords & Tabs

Skrillex Chords & Tabs

Version: 1 Type: Bass Tab 0 ratings
1 star 2 stars 3 stars 4 stars 5 stars
comments

Make It Bun Dem Bass Tab

-----------------------------------------------------------------
Make it Bun Dem - Skrillex and Damien Marley
-----------------------------------------------------------------

Tabbed By : OwenWxM
e-mail: mashitima69@gmail.com

I tabbed this from a bass cover on youtube: 
http://www.youtube.com/watch?v=RBDcbpMnyJE 

Tuning: Drop D

Part 1: "Turn up the bass, turn the bass (0:14 -0:40, 2:04 - 2:30)"
G|---------------------------------|
D|---------------------------------|
A|---------------------------------|
D|-3--3-3---3--3-3---3--3-3--1--5-3|
Part 2 "We a make a fire make it bun dem"
G|---------------------------------------------------------------|
D|---------------------------------------------------------------|
A|-4-4-4-4-4-5-4-2-0---------------------------------------------|
D|-------------------3-------------------------------------------|

Part 3 instrumental solo thing (0:41 - 1:06)
G|---------------------------------------------------------------|
D|---------------------------------------------------------------|
A|-9-9-9-9-9-9-9-9--9-9-9--9--7--10--9---------------------------|
D|---------------------------------------------------------------| 
[ Tab from: http://www.guitartabs.cc/tabs/s/skrillex/make_it_bun_dem_btab.html ]
G|---------------------------------------------------------------|
D|---------------------------------------------------------------|
A|-4-4-4-4-4-4-4-4--4-4-4--4--2--5--4----------------------------|
D|---------------------------------------------------------------|

Second instrumental thing (2:31 to 3:00)
G|---------------------------------------------------------------|
D|----------------------------12b--------------------------------|
A|--9-9-9--9--9-9-9--9--9-9-9----10-9-9-9--9---------------------|
D|---------------------------------------------------------------|

G|---------------------------------------------------------------|
D|---------------------------------------------------------------|
A|--------------------------------------12-----------------------|
D|-10-10-10--10--10-10-10--10--10-10-10----11-10-10-10-10--------|

Part 5 (rapping bit, 1:10 - 1:36, 3:00 to end)
G|---------------------------------------------------------------|
D|---------------------------------------------------------------|
A|---------------------------------------------------------------|
D|--3-3-3-3-3-3-3-3--3-3-3-3-/-15-15-15-15-----------------------|

I'm sorry if the timing is hard to understand, listen to the song to work it out.

Comments