Skrillex - Kyoto Chords & Tabs

 

Kyoto Chords & Tabs

Skrillex Chords & Tabs

Version: 3 Type: Tab 0 ratings
1 star 2 stars 3 stars 4 stars 5 stars
comments

Kyoto Tab

   
-------------------------------------------------------------------------------
                             Kyoto (Featuring Sirah) - Skrillex
-------------------------------------------------------------------------------
Tabbed by: Michael Capanna      
Email: SpyderPB6@gmail.com


Displeased with current Kyoto tabs, I decided to render one based on Fracionado's
version of the track, but one that allows for 6 string players to get into it.
Iíve transcribed this by ear in Eb tuning, a half step down. This allows for 
common finger positioning and still lets us get low. As always with my tabs, 
constructive critisicm is welcomed to help improve it. Please rate this tab 
and comment.

There are most deinfately mistakes, please point them out!!


I will update shortly with video play through.

Thanks everyone!

Tab Version: 1.0 - 08/27/2013
 



Tuning:Eb Ab Db Gb Bb Eb (Half Step Down)

Eb|-------------------------------------------------------------------------------|
Bb|-------------------------------------------------------------------------------|
Gb|-------------------------------------------------------------------------------|
Db|---5--5---5---5---6-5--5---5---5---5--x-5--5---5---5--6-5--5---5---5--x-x-5//--|
Ab|---5--------------6-5-----------------x-5-------------6-5-------------x-x-5//--|
Eb|---3--------------4-3-----------------x-3-------------4-3-------------x-x-3//--| 
         +   +   +        +   +   +   +       +   +   +       +   +   +  


Eb|-------------------------------------------------------------------------------|
Bb|-------------------------------------------------------------------------------|
Gb|-------------------------------------------------------------------------------|
Db|-x-6-5------------x-5------------x-6-5-----------x-x-(5)-----------------------|
Ab|-x-6-5------------x-5------------x-6-5-----------x-x-(5)-----------------------|
Eb|-x-4-3------------x-3------------x-4-3-----------x-x-(3)-----------------------| 


Eb|-------------------------------------------------------------------------------|2
Bb|-------------------------------------------------------------------------------|T
Gb|------(8)---8---88-8---5555-3-5-8/10-10-10-10-10-------------------------------|I
Db|-5-5--(8)---8---88-8---5555-3-5-8/10-10-10-10-10--5-5-5-5-5--------------------|M
Ab|-5-5--(6)---6---66-6---3333-1-3-6/8--8--8--8--8---5-5-5-5-5--------------------|E
Eb|-3-3----------------------------------------------3-3-3-3-3-333333333----------|S
                                                               xxxxxxxxx



Eb|---------------------------|2  -----------------------------------------------|
Bb|---------------------------|T  -----------------------------------------------|
Gb|---------------------------|I  -----------------------------------------------|
Db|-5--8--6--5----5--5--6--5--|M  --5-5-8-6-5-m-m-m-m-5-5-5-6-5-m-m-m-m----------|
Ab|---------------------------|E  -----------------------------------------------|
Eb|---------------------------|S  -----------------------------------------------|
    x  x  x  x    x  x  x  x       x x x x x x x x x x x x x x x x x x



Eb|-----------------------------------------------yo-----------------------------|
Bb|------------------------------------------------skrillex----------------------|
Gb|-------------------------------------------------rap--------------------------|
Db|-5-5-5-8-6-5-5-5-5-5-5-5-5-5-555555555865---------it--------------------------|
Ab|---------------------------------------------------hard-----------------------|
Eb|------------------------------------------------------------------------------|
    x x x x x x x x x x x x x x xxxxxxxxxxxx


Eb|-----------------33333333-----------------8888881010--------------------------|2
Bb|-----------------33333333-----------------8888888-8---------------------------|T
Gb|-77-10-8-7-------00000000--77-5/8-7-------0000000-0---------------------------|I
Db|-55-8--6-5-(0)---00000000--55-5/6-5-(0)---------------------------------------|M
Ab|-55------------------------55-------------------------------------------------|E
Eb|------------------------------------------------------------------------------|S



Eb|-/-/-/---------------------------------------------------------------------------|
Bb|-/-/-/---------------------------------------------------------------------------|
Gb|-/-/-/-------------12~ 11-11h12p11-7~ ---7h8p7\5-5h7p5\3-5-2-3-------------------|
Db|-/-/-/------------------------------ //7-----------------------3/5~5-5-5-5-5-5-5-|
Ab|-/-/-/---10-10-10~ --------------------------------------------------------------|
Eb|-/-/-/---------------------------------------------------------------------------|
    x x x                                                             x x x x x x x

[ Tab from: http://www.guitartabs.cc/tabs/s/skrillex/kyoto_tab_ver_3.html ]
Eb|---------------------------------------------------------------------------------|
Bb|---------------------------------------------------------------------------------|
Gb|----------------12~ 11-11h12p11-7~777-77-7h8p7\5-5h7p5\3-5-2-3-------------------|
Db|-55555555------------------------------------------------------------------------|
Ab|----------//10~ -----------------------------------------------------------------|
Eb|---------------------------------------------------------------------------------|
    xxxxxxxx


Eb|------------------------------------------------------------------------------|
Bb|------------------------------------------------------------------------------|
Gb|------------------------------------------------------------------------------|
Db|-3/5~5-5-5-5-5-5-5-55555555---------------------------------------------------|
Ab|------------------------------------------------------------------------------|
Eb|------------------------------------------------------------------------------|
        x x x x x x x xxxxxxxx


Eb|-----------------33333333-----------------8888881010--------------------------|
Bb|-----------------33333333-----------------8888888-8---------------------------|
Gb|-77-10-8-7-------00000000--77-5/8-7-------0000000-0---------------------------|
Db|-55-8--6-5-(0)---00000000--55-5/6-5-(0)---------------------------------------|
Ab|-55------------------------55-------------------------------------------------|
Eb|------------------------------------------------------------------------------|

Eb|-----------------33333333----------------\\-----------------------------------|
Bb|-----------------33333333----------------\\-----------------------------------|
Gb|-77-10-8-7-------00000000--77-5/8-7------\\-----------------------------------|
Db|-55-8--6-5-(0)---00000000--55-5/6-5------\\-----------------------------------|
Ab|-55------------------------55-----5------\\-----------------------------------|
Eb|-----------------------------------------\\-----------------------------------|
                                            xx  

Eb|------------------------------------------------------------------------------|
Bb|------------------------------------------------------------------------------|
Gb|------------------------------------------------------------------------------|
Db|---5--5---5---5---6-5--5---5---5---5---5--5---5---6-5-3-5-3-------------------|
Ab|---5--------------6-5------------------5----------6-5-3-5-3---------5---------|
Eb|---3--------------4-3------------------3----------4-3-1-3-1-8\\\1-0---5-33----| 
         +   +   +        +   +   +   +      +   +             xxxxx x x x xx

Eb|------------------------------------------------------------------------------|
Bb|------------------------------------------------------------------------------|
Gb|------------------------------------------------------------------------------|
Db|---5--5---5---5---6-5--5---5---5---5---5--5---5---5--6-5\\\\------------------|
Ab|---5--------------6-5------------------5-------------6-5\\\\------------------|
Eb|---3--------------4-3------------------3-------------4-3\\\\------------------| 
         +   +   +        +   +   +   +      +   +   + 

Eb|------------------------------------------------------------------------------|3
Bb|------------------------------------------------------------------------------|T
Gb|------------------------------------------------------------------------------|I
Db|---5-55-5--------5-0-5-0--5-55-5------------3---------------------------------|M
Ab|---5-55-5-----------------5-55-5--------8\\\3---------------------------------|E
Eb|---3-33-3-333-33----------3-33-3-333-33-8\\\1---------------------------------|S
      x xx x xxx xx          x xx x xxx xx   

Eb|------------------------------------------------------------------------------|
Bb|------------------------------------------------------------------------------|
Gb|------------------------------------------------------------------------------|
Db|---5-55-5--------5-0-5-0--5-55-5----------------------------------------------|
Ab|---5-55-5-----------------5-55-5--------8\\\----------------------------------|
Eb|---3-33-3-333-33----------3-33-3-333-33-8\\\----------------------------------| 
      x xx x xxx xx          x xx x xxx xx   

Eb|-/-------------------------------------------------------------------------------|
Bb|-/-------------------------------------------------------------------------------|
Gb|-/-----------------12~ 11-11h12p11-7~ ---7h8p7\5-5h7p5\3-5-2-3-------------------|
Db|-/---------------------------------- //7-----------------------3/5~5-5-5-5-5-5-5-|
Ab|-/-------10-10-10~ --------------------------------------------------------------|
Eb|-/-------------------------------------------------------------------------------|
    x                                                                 x x x x x x x

Eb|---------------------------------------------------------------------------------|
Bb|---------------------------------------------------------------------------------|
Gb|----------------12~ 11-11h12p11-7~777-77-7h8p7\5-5h7p5\3-5-2-3-5-----------------|
Db|-55555555-------------------------------------------------------------------5----|
Ab|----------//10~ ---------------------------------------------------8\-8\-8\-5----|
Eb|-------------------------------------------------------------------8\-8\-8\-3----|
    xxxxxxxx





| Notes in parenthesis ( ) = Let Ring
| /  slide up
| \  slide down
| h  hammer-on
| p  pull-off
| ~  vibrato
| +  harmonic
| x  Palm Mute
| m Mute Note
===============================================================================
Comments