Skrillex - Kill Everybody Chords & Tabs

 

Kill Everybody Chords & Tabs

Skrillex Chords & Tabs

Version: 1 Type: Tab 0 ratings
1 star 2 stars 3 stars 4 stars 5 stars
comments

Kill Everybody Tab

   
============================
 Kill EVERYBODY - Skrillex
============================
Voice:
e|----------------------|
B|----------------------|
G|6-6-6-6-6-6-6-6-6-6-6\|
D|7-7-7-7-7-7-7-7-7-7-7\|
A|5-5-5-5-5-5-5-5-5-5-5\|
D|----------------------|

Pre-Dubstep:
e|----|
B|----|
G|7-7\|
D|5-5\|
A|5-5\|
D|----|

Dubstep:
e|---------|
B|---------|
G|---------|
D|---1----1|
A|---1----1|
D|0001-0001|
 [PM.][PM.]

Post Dubstep:
e|--------------------|
B|--------------------|
G|7-7-9-9-11-11-13--13|
D|5-5-7-7-9--9--11--11|
A|5-5-7-7-9--9--11--11|
D|--------------------|
[ Tab from: http://www.guitartabs.cc/tabs/s/skrillex/kill_everybody_tab.html ]
e|----------|
B|----------|
G|12--------|
D|----13v-12|
A|--12------|
D|----------|

e|----5-5\|
B|6-6-6-6\|
G|7-7-7-7\|
D|8-8-----|
A|--------|
D|--------|

Pre-Dubstep:
e|----|
B|----|
G|7-7\|
D|4-4\|
A|5-5\|
D|6-6\|

Dubstep:
e|---------|
B|---------|
G|---------|
D|---1----1|
A|---1----1|
D|0001-0001|
 [PM.][PM.]

Post Dubstep:
e|--------------------|
B|--------------------|
G|7-7-9-9-11-11-13--13|
D|5-5-7-7-9--9--11--11|
A|5-5-7-7-9--9--11--11|
D|--------------------|

e|----------|
B|----------|
G|12--------|
D|----13v-12|
A|--12------|
D|----------|

e|----5-5\|
B|6-6-6-6\|
G|7-7-7-7\|
D|8-8-----|
A|--------|
D|--------|
Comments