Skrillex - Bangarang Chords & Tabs

 

Bangarang Chords & Tabs

Skrillex Chords & Tabs

Version: 2 Type: Tab 0 ratings
1 star 2 stars 3 stars 4 stars 5 stars
comments

Bangarang Tab

I'm not a big dubstep fan, but, playing this song on electric guitar is fucking awesome!

Tuning: Standard E

x = muted picking
/ = slide
h  = hammer on
p = pull off
* = natural harmonic
. = palm mute

Intro pt.1 (0:00 - 0:05)

(listen to the song, follow the rhythm)
e|----------------------------------|
B|-x-x-8-x-8-8-x-x-8-8-x-x-8-x-8-8--|
G|----------------------------------| x2
D|----------------------------------|
A|----------------------------------|
E|----------------------------------|

Intro pt.2 (0:05 - 0:24)

e|-x-x-15--18--15--|
B|-----------------|
G|-----------------| x18
D|-----------------|
A|-----------------|
E|-----------------|

Bangarang!    Riff 1 (0:26 - 0:55)

e|----------|---------------------------------------------------------------------|
B|----------|-----------------------13p11-----------------------------------------|
G|-15p12-12-|-----12--12--12--5*-5*--------------------------12----15p12-12-------|
D|----------|-5---12--12--12---------------------------------12-------------------|
A|----------|-5-------------------------------------------------------------------|
E|----------|-3----------------------------15-15-15-15-15-15----------------------|

e|---------------------------------------------------------------------|
B|-----------------------13p11-----------------------------------------|
G|-----12--12--12--5*-5*--------------------------12----10h12-12-------| x3
D|-5---12--12--12---------------------------------12-------------------|
A|-5-------------------------------------------------------------------|
E|-3----------------------------15-15-15-15-15-15----------------------|

e|----------------------------------------------------------------------|
B|-----------------------13p11------------------------------------------|
G|-----12--12--12--5*-5*--------------------------12----15p12-12--------| 
D|-5---12--12--12---------------------------------12----------------5---|
A|-5----------------------------------------------------------------5---|
E|-3----------------------------15-15-15-15-15-15-------------------3---|

Riff 2 (0:56 - 1:11)

(during second time, a second guitar plays Intro pt.2)

e|--------------------------------10h11p10---------------------------------------|
B|--------------------------13-11------------------------------------11----------|
G|-/12-12-12-12-12-12-12-12-----------------/12-12-12-12-12-12-12-12----12~------|
D|-------------------------------------------------------------------------------|
A|-------------------------------------------------------------------------------|
E|-------------------------------------------------------------------------------|

e|--------------------------------10h11p10-------------------------------------------------|
B|--------------------------13-11------------------------------------13p11----13p11----13--|
G|-/12-12-12-12-12-12-12-12-----------------/12-12-12-12-12-12-12-12-------12-------12-----|
D|-----------------------------------------------------------------------------------------| x2
A|-----------------------------------------------------------------------------------------|
E|-----------------------------------------------------------------------------------------|

Riff 3 (01:13 - 01:46)

(Tricky riff, practice for speed and accuracy)         quicky Slide up, bend, slide down the neck

e|-------------/15-15-15--/15-15-15--------------/15-15-15--/21b\------|
B|---------------------------------------------------------------------|
G|-12-12----12-----------------------12-12----12-----------------------|
D|-12-12----12-----------------------12-12----12-----------------------|
A|---------------------------------------------------------------------|
E|-------15--------------------------------15--------------------------|

e|-------------/15-15-15--/15-15-15------------------------------------|
B|---------------------------------------------------------------------|
G|-12-12----12-----------------------3*-----12*------------------------| x4
D|-12-12----12---------------------------------------------------------|
A|---------------------------------------------------------------------|
E|-------15------------------------------------------------------------|

Riff 2 (1:48 - 2:03)

e|--------------------------------10h11p10---------------------------------------|
B|--------------------------13-11------------------------------------11----------|
G|-/12-12-12-12-12-12-12-12-----------------/12-12-12-12-12-12-12-12----12~------|
D|-------------------------------------------------------------------------------|
A|-------------------------------------------------------------------------------|
E|-------------------------------------------------------------------------------|

e|--------------------------------10h11p10-------------------------------------------------|
B|--------------------------13-11------------------------------------13p11----13p11----13--|
G|-/12-12-12-12-12-12-12-12-----------------/12-12-12-12-12-12-12-12-------12-------12-----|
D|-----------------------------------------------------------------------------------------| x2
A|-----------------------------------------------------------------------------------------|
E|-----------------------------------------------------------------------------------------|

Intro pt. 1 & 2 again (2:03 - 2:29)

e|----------------------------------|
B|-x-x-8-x-8-8-x-x-8-8-x-x-8-x-8-8--|
G|----------------------------------| x2
D|----------------------------------|
A|----------------------------------|
E|----------------------------------|

e|-x-x-15--18--15--|
B|-----------------|
G|-----------------| x18
D|-----------------|
A|-----------------|
E|-----------------|

Bangarang!    Riff 1 (2:30 - 3:00)
[ Tab from: http://www.guitartabs.cc/tabs/s/skrillex/bangarang_tab_ver_2.html ]
e|----------|---------------------------------------------------------------------|
B|----------|-----------------------13p11-----------------------------------------|
G|-15p12-12-|-----12--12--12--5*-5*--------------------------12----15p12-12-------|
D|----------|-5---12--12--12---------------------------------12-------------------|
A|----------|-5-------------------------------------------------------------------|
E|----------|-3----------------------------15-15-15-15-15-15----------------------|

e|---------------------------------------------------------------------|
B|-----------------------13p11-----------------------------------------|
G|-----12--12--12--5*-5*--------------------------12----10h12-12-------| x3
D|-5---12--12--12---------------------------------12-------------------|
A|-5-------------------------------------------------------------------|
E|-3----------------------------15-15-15-15-15-15----------------------|

e|----------------------------------------------------------------------|
B|-----------------------13p11------------------------------------------|
G|-----12--12--12--5*-5*--------------------------12----15p12-12--------| 
D|-5---12--12--12---------------------------------12----------------5---|
A|-5----------------------------------------------------------------5---|
E|-3----------------------------15-15-15-15-15-15-------------------3---|

Riff 2 (3:01 - 3:14)

(with intro pt. 1,2 & "Bangarang!"part)

e|--------------------------------10h11p10---------------------------------------|
B|--------------------------13-11------------------------------------11----------|
G|-/12-12-12-12-12-12-12-12-----------------/12-12-12-12-12-12-12-12----12~------|
D|-------------------------------------------------------------------------------|
A|-------------------------------------------------------------------------------|
E|-------------------------------------------------------------------------------|

e|--------------------------------10h11p10-------------------------------------------------|
B|--------------------------13-11------------------------------------13p11----13p11----13--|
G|-/12-12-12-12-12-12-12-12-----------------/12-12-12-12-12-12-12-12-------12-------12-----|
D|-----------------------------------------------------------------------------------------| x2
A|-----------------------------------------------------------------------------------------|
E|-----------------------------------------------------------------------------------------|

Listen to the song, this time end Riff 2 with this (3:15 - 3:17)

e|------------------|
B|------------------|
G|--------15p12 12--|
D|-5---5------------|
A|-5---5------------|
E|-3---3------------|

Riff 3 (3:18 - 3:51)

e|-------------/15-15-15--/15-15-15--------------/15-15-15--/21b\------|
B|---------------------------------------------------------------------|
G|-12-12----12-----------------------12-12----12-----------------------|
D|-12-12----12-----------------------12-12----12-----------------------|
A|---------------------------------------------------------------------|
E|-------15--------------------------------15--------------------------|

e|-------------/15-15-15--/15-15-15------------------------------------|
B|---------------------------------------------------------------------|
G|-12-12----12-----------------------3*-----12*------------------------| x4
D|-12-12----12---------------------------------------------------------|
A|---------------------------------------------------------------------|
E|-------15------------------------------------------------------------|

Riff 2 (3:53 - 4:08)

e|--------------------------------10h11p10---------------------------------------|
B|--------------------------13-11------------------------------------11----------|
G|-/12-12-12-12-12-12-12-12-----------------/12-12-12-12-12-12-12-12----12~------|
D|-------------------------------------------------------------------------------|
A|-------------------------------------------------------------------------------|
E|-------------------------------------------------------------------------------|

e|--------------------------------10h11p10-------------------------------------------------|
B|--------------------------13-11------------------------------------13p11----13p11----13--|
G|-/12-12-12-12-12-12-12-12-----------------/12-12-12-12-12-12-12-12-------12-------12-----|
D|-----------------------------------------------------------------------------------------| x2
A|-----------------------------------------------------------------------------------------|
E|-----------------------------------------------------------------------------------------|

Bangarang! (4:09)

Intro pt 1 & 2 (4:10 - 4:17)

e|----------------------------------|
B|-x-x-8-x-8-8-x-x-8-8-x-x-8-x-8-8--|
G|----------------------------------| x2
D|----------------------------------|
A|----------------------------------|
E|----------------------------------|

e|-x-x-15--18--15--|
B|-----------------|
G|-----------------| x4
D|-----------------|
A|-----------------|
E|-----------------|

That's all friends, if you got any trouble playing it, mail me: xemnasaxel14@gmail.com

EXTRA BONUS:

I've learned a different way to play Riff 1 in a video that i watched last week, 
this is the only part that is not arranged by me, but i wanted to share it with all of you,
It's easier than mine's, and sounds a little bit different,i like it but, However, 
i still prefer to play it my own way :D

Riff 1 (extra)

                     
e|------------------8p6--------------------------|
B|-----8-8-8----------------------------11p8-8---|
G|-----7-7-7-------------3-3-3---3-3-3-----------|
D|-5---5-5-5--5*-5*------3-3-3---3-3-3-----------|
A|-5---------------------0-0-0---0-0-0-----------|
E|-3---------------------------------------------|
PM =                     . . .   . . .

e|------------------8p6--------------------------|
B|-----8-8-8----------------------------6h8-8----|
G|-----7-7-7-------------3-3-3---3-3-3-----------|
D|-5---5-5-5--5*-5*------3-3-3---3-3-3-----------|
A|-5---------------------0-0-0---0-0-0-----------|
E|-3---------------------------------------------|
PM =                     . . .   . . .

P.D.: i will record a cover and i will use both ways for playing Riff 1
Comments