Skrillex - Bangarang Chords & Tabs

 

Skrillex Chords & Tabs

Version: 1 Type: Tab 0 ratings
1 star 2 stars 3 stars 4 stars 5 stars
comments

Bangarang Tab

   
-----------------------------------------------------------------------------
Bangarang (Guitar Cover) - Skrillex
-----------------------------------------------------------------------------
Tabbed by: Kjl Smith (O0slevin) Self Cover
Email: Birdclocktree@gmail.com

Tuning: Drop D

e|-------------------------------|------------|
B|-x-x-8-x-8-8-x-x-8-8-x-8-x-x-x-|------------|
G|-------------------------------|------------|
D|-------------------------------|x12------5\-|
A|-------------------------------|---------5\-|
E|-------------------------------|---------5\-|

..BANGARANG! :D

            +      +     +      PM-----------------------------------|
e|-------------------------------------------------------------------|
B|-----------------------------------------------11\8-8-8-x-x-6/8----|
G|----------15p12-15p12-17p15----------------------------------------|
D|--5-5-5/--------------------5-5-5-5----5-5-5/---8\5-5-5-x-x-3/5----|
A|--5-5-5/--------------------5-5-5-5----5-5-5/----------------------|
E|--5-5-5/--------------------5-5-5-5----5-5-5/----------------------|

            +      +     +      PM-------------------------------------|
e|-----------------------------------------------------------------|---|
B|-----------------------------------------------11\8-8-8-x-x-1/5--|---|
G|----------15p12-15p12-17p15------------------------------------------|x4
D|--5-5-5/--------------------5-5-5-5----5-5-5/---8\5-5-5-x-x-1/5--|---|
A|--5-5-5/--------------------5-5-5-5----5-5-5/--------------------|---|
E|--5-5-5/--------------------5-5-5-5----5-5-5/--------------------|---|


e|------|
B|------|
G|------|
D|-5\---|
A|-5\---|
E|-5\---|


e|-------------------------------|-------------|
B|-x-x-8-x-8-8-x-x-8-8-x-8-x-8-8-|-------------|
G|-------------------------------|o-x3---------|
D|-------------------------------|o-----5\--5\-|
A|-------------------------------|------5\--5\-|
E|-------------------------------|------5\--5\-|

Make sure you have a quick hand. :P

e|--------------------------------------------------------------------------|
B|--------------------------------------------------------------------------|
G|---------/12/24-24-24-24-24-24\-12-/24-24-24-24-24-24\--------------------|
D|-5-5-5/-------------------------------------------------------------------|
A|-5-5-5/-------------------------------------------------------------------|
E|-5-5-5/-------------------------------------------------------------------|

[ Tab from: http://www.guitartabs.cc/tabs/s/skrillex/bangarang_tab.html ]
e|----------------------10--|
B|------------8h11-8h11----|
G|----------------10--------|
D|-5-5-5/-x-x---------------|
A|-5-5-5/-x-x---------------|
E|-5-5-5/-------------------|


e|--------------------------------------------------------|
B|--------------------------------------------------------|
G|---------/12/24-24-24-24-24-24\-12-/24-24-24-24-24-24\--|
D|-5-5-5/-------------------------------------------------|
A|-5-5-5/-------------------------------------------------|
E|-5-5-5/-------------------------------------------------|


e|--------------------------|---|
B|--------------------------|---|
G|-7------------------------|---|
D|---x-x-7-x-x---------3h5------|x4
A|---x-x---x-x-----3h5------|---|
E|-------------3h5----------|---|

Bridge time! Read it slow, or your eyes will start bleeding.

e|--------------------------------------------|
B|--------------------------------------------|
G|-12--12--12--12-12-12/15-15-15/17-17-19-17--|
D|--------------------------------------------|
A|-10--10--10--10-10-10/13-13-13/15-15-17-15--|
E|--------------------------------------------|


e|-----------------------------------|----------|
B|-----------------------------------|----------|
G|-12--12--12-12-12/15-15-15-x-x-12--|----------|
D|-----------------------------------|x4----5\--|
A|-10--10--10-10-10/13-13-13-x-x-10--|------5\--|
E|-----------------------------------|------5\--|

e|-------------------------------|----------------------|
B|-x-x-8-x-8-8-x-x-8-8-x-8-x-8-8-|-x-x-8-x-8-8-x-x------|
G|-------------------------------|----------------------|
D|-------------------------------|x7---------------5\---|
A|-------------------------------|-----------------5\---|
E|-------------------------------|-----------------5\---|


            +      +     +      PM-----------------------------------|
e|-------------------------------------------------------------------|
B|-----------------------------------------------11\8-8-8-x-x-6/8----|
G|----------15p12-15p12-17p15----------------------------------------|
D|--5-5-5/--------------------5-5-5-5----5-5-5/---8\5-5-5-x-x-3/5----|
A|--5-5-5/--------------------5-5-5-5----5-5-5/----------------------|
E|--5-5-5/--------------------5-5-5-5----5-5-5/----------------------|


            +      +     +      PM-------------------------------------|
e|-----------------------------------------------------------------|---|
B|-----------------------------------------------11\8-8-8-x-x-1/5--|---|
G|----------15p12-15p12-17p15------------------------------------------|x4
D|--5-5-5/--------------------5-5-5-5----5-5-5/---8\5-5-5-x-x-1/5--|---|
A|--5-5-5/--------------------5-5-5-5----5-5-5/--------------------|---|
E|--5-5-5/--------------------5-5-5-5----5-5-5/--------------------|---|
Comments