Skrewdriver - Boots And Braces Chords & Tabs

 

Boots And Braces Chords & Tabs

Skrewdriver Chords & Tabs

Version: 1 Type: Tab 0 ratings
1 star 2 stars 3 stars 4 stars 5 stars
comments

Boots And Braces Tab

e|-------------------------------------------------------------|
b|-------------------------------------------------------------|
g|----------------5-5--5-5-5---7-7-----------------------------|
d|--5-5---5-5-5---5-5--5-5-5---7-7-9-9-7-7-9-9-7-7-9-9-7-7-9-9-|
a|--5-5---5-5-5---3-3--3-3-3---5-5-5-5-5-5-5-5-5-5-5-5-5-5-5-5-|
e|--3-3---3-3-3------------------------------------------------|

then x2

[ Tab from: http://www.guitartabs.cc/tabs/s/skrewdriver/boots_and_braces_tab.html ]
e|-------------------------------------------|
b|-------------------------------------------|
g|----------------------5-5-5-5--------------|
d|--5-5-5-5---3-3-3-3---5-5-5-5---5-5-5-5----|
a|--5-5-5-5---3-3-3-3---3-3-3-3---5-5-5-5----|
e|--3-3-3-3---1-1-1-1-------------3-3-3-3----|

chorus 
x4

e|---------------------------------------------|
b|---------------------------------------------|
g|------------------------5-5--x-x-------------|
d|--5-5--x-x---3-3--x-x---5-5--x-x---5-5--x-x--|
a|--5-5--x-x---3-3--x-x---3-3--x-x---5-5--x-x--|
e|--3-3--x-x---1-1--x-x--------------3-3--x-x--|
Comments