Skrape - Waste Chords & Tabs

 

Waste Chords & Tabs

Skrape Chords & Tabs

Version: 1 Type: Tab 0 ratings
1 star 2 stars 3 stars 4 stars 5 stars
comments

Waste Tab

Author/Artist: Skrape
Title: Waste
Album: New Killer America
Transcribed by: Brandon McSorley
Email: LethalDosage5o0@cs.com

I love this song and nobody has tabbed it so i decided to, ENJOY! tuning is
C-G-C-F-A-DD|--------||-----------------------|----------------------|---------------------
A|--------||-----------------------|----------------------|---------------------
F|--------||-----------------------|----------------------|---------------------
C|--------||-----------------------|----------------------|---------------------
G|-0-0-0-0||-----------------------|----------------------|---------------------
C|-0-0-0-0||0-0-0-2h3-3-3-3-/-6-6-6|0-0-0-3h5-5-5-5/-6-6-6|-0-0-0-5h6-6-6-6/-88-
 p.m......  phaser effect.. . . . . . . . . . . . .  . . .  . . . . . . . .  ..

D|------------------------------------------------------------------------------
A|------------------------------------------------------------------------------
F|------------------------------------------------------------------------------
C|--0-2-3-0-3-5-0-5-6-5-3--3-3-3------------------------------------------------
G|--0-2-3-0-3-5-0-5-6-5-3--3-3-3------------------------------------------------
C|--0-2-3-0-3-5-0-5-6-5-3--3-3-3------------------------------------------------
-Intro Part 2/Main Riff                                                      -

D|----------------------------------------|-------------------------------------
A|----------------------------------------|-------------------------------------
F|----------------------------------------|-------------------------------------
C|----------------------------------------|-------------------------------------
G|----------------------------------------|--3-2-1-0----3-2-1-0--3-2-0----------
C|--2-2-2-2---2-2-2-/-5-5-5-5-5-\-4-4-4-4-|--3-2-1-0----3-2-1-0--3-2-0----------
-p.m..... .   . . .   . . . . .   . . . .                                      -

F|-----------|------------------------------------------------------------------
A|-----------|------------------------------------------------------------------
D|-----------|------------------------------------------------------------------
C|-----------|------------------------------------------------------------------
G|---3-2-1-0-|--3-2-1-0--0-6---0------------------------------------------------
C|---3-2-1-0-|--3-2-1-0--0-6---0------------------------------------------------
-  Chorus                                                                    -
D|------------------------------------------------------------------------------
A|------------------------------------------------------------------------------
F|------------------------------------------------------------------------------
C|------------------------------------------------------------------------------
G|--0-0-0-0----0-0-0-0----0-0-0-0------12\\\\\1---------------------------------
C|--0-0-0-0----0-0-0-0----0-0-0-0------12\\\\\1---------------------------------
- Bridge                                                                     -

D|------------------------------------------------------------------------------
A|------------------------------------------------------------------------------
D|------------------------------------------------------------------------------
C|------------------------------------------------------------------------------
G|--3-2-1-0---3-2-1-0--3-2-1-0--3-2-1-0-0------------------------0-6------------
C|--3-2-1-0---3-2-1-0--3-2-1-0--3-2-1-0-0--0-0-0-0-0-0-0-0-0-0-0-0-6------------
  End Riff                            p.m... . . . . . . . . . .


============

Author/Artist: Skrape
Title: Waste
Album: New Killer America
Transcribed by: Joey from Laceration
Email: soulflying999@aol.com

dropped d, i tabbed it out myself, the guitarist uses lynchard guitars 
and a dunlop crybaby wah in this song, It's a pretty easy song, not 
too hard to tab out, Skrape is a great band, I saw them last night in 
San Jose, they were pretty awesome. by the way dont get confused with 
the guitar and the dj in this song. the only time guitar has the wah is 
in the verse.
[ Tab from: http://www.guitartabs.cc/tabs/s/skrape/waste_tab.html ]
------------------------------------------------------------------------------
------------------------------------------------------------------------------
------------------------------------------------------------------------------
--0-0-0-0--------------0-0-0-0-----------0-0-0-0-----------0-0-0-0------------
--0-0-0-0--------------0-0-0-0-----------0-0-0-0-----------0-0-0-0------------
--0-0-0-0--------------0-0-0-0-----------0-0-0-0-----------0-0-0-0------------
  intro       DJ PART          DJ PART            DJ PART                     

------------------------------------------------------------------------------
------------------------------------------------------------------------------
------------------------------------------------------------------------------
--0-3h5-0-5h6-0-3h5-0h5p0-33-----------xxxx-----------------------------------
--0-3h5-0-5h6-0-3h5-0h5p0-33-----------xxxx-----------------------------------
--0-3h5-0-5h6-0-3h5-0h5p0-33-----------xxxx-----------------------------------
   chorus                           starting of verse                         

------------------------------------------------------------------------------
------------------------------------------------------------------------------
---------------------------------8h10p8h10p8h10p8h10p8h10p8h10p8h10p8h10v-----
-xxxxxxxxxxxxxxxxxxxxxxxxxxxxxxxx---------------------------------------------
-xxxxxxxxxxxxxxxxxxxxxxxxxxxxxxxx---------------------------------------------
-xxxxxxxxxxxxxxxxxxxxxxxxxxxxxxxx---------------------------------------------
    verse       with wah up and down     *hint* palm mute by 12 fret          

------------------------------------------------------------------------------
------------------------------------------------------------------------------
------------------------------------------------------------------------------
------------------------------------------------------------------------------
------------------------------------------------------------------------------
-0000-00-0-33-22-11-----------------------------------------------------------
    bridge - palm muted                                                       

------------------------------------------------------------------------------
------------------------------------------------------------------------------
------------------------------------------------------------------------------
------------------------------------------------------------------------------
------------------------------------------------------------------------------
-2p1p0-0----2p1p0-0-----------------------------------------------------------
 2nd bridge                                                                   

------------------------------------------------------------------------------
------------------------------------------------------------------------------
------------------------------------------------------------------------------
-2p1p0-0----2p1p0-0----2p1p0-0---2p1p0-0-xx-33--------------------------------
-2p1p0-0----2p1p0-0----2p1p0-0---2p1p0-0-xx-33--------------------------------
-2p1p0-0----2p1p0-0----2p1p0-0---2p1p0-0-xx-33--------------------------------
   chorus                                                                     

------------------------------------------------------------------------------
------------------------------------------------------------------------------
------------------------------------------------------------------------------
--12////////////--------------------------------------------------------------
--12////////////--------------------------------------------------------------
--12////////////--------------------------------------------------------------
            at about  2:33 there is a little fill                             

------------------------------------------------------------------------------
------------------------------------------------------------------------------
------------------------------------------------------------------------------
-1-1-1-1-0--------------------------------------------------------------------
-1-1-1-1-0--------------------------------------------------------------------
-1-1-1-1-0--------------------------------------------------------------------
 palm muted and another fill at about  3:14
Comments