Skrach - Demolisoin Chords & Tabs

 

Demolisoin Chords & Tabs

Skrach Chords & Tabs

Version: 1 Type: Bass Tab 0 ratings
1 star 2 stars 3 stars 4 stars 5 stars
comments

Demolisoin Bass Tab

G-----------------------------------------
D--------2-------2-------2----------------
A--0-2-3---0-2-3---0-2-3---00-------------
E-----------------------------------------
[ Tab from: http://www.guitartabs.cc/tabs/s/skrach/demolisoin_btab.html ]
G--------2-------2------------------------
D--0-2-3---0-2-3---------2----------------
A------------------0-2-3----00------------
E-----------------------------------------

G-----0-----------------------------------
D--22---2-00-3-0--------2-----------------
A-----------------0-2-3---00--------------
E-----------------------------------------

G--22-0-2-00---0-------2------------------
D------------3---0-2-3---00-----0---------
A---------------------------0-3--3-00-----
E-----------------------------------------
Comments