Skinlab - When Pain Comes To Surface Chords & Tabs

 

When Pain Comes To Surface Chords & Tabs

Skinlab Chords & Tabs

Version: 1 Type: Bass Tab 0 ratings
1 star 2 stars 3 stars 4 stars 5 stars
comments

When Pain Comes To Surface Bass Tab

   
----------------------------------------------------------------------------
		   When pain comes to surface - Skinlab
----------------------------------------------------------------------------

Tabbed By : mike abtoch
e-mail: SOADrocks0027@aol.com

Tuning: B,A,D,G (drop B)

first riff(x8):
G|---------------------------------------------------------------------------|
D|---------------------------------------------------------------------------|
A|---------------------------------------------------------------------------|
B|6-5-0-1-0-2-1-2-6-5-1-2---------------------------------------------------

first verse(x4 i think):
G|---------------------------------------------------------------------------|
D|---------------------------------------------------------------------------|
A|---------------------------------------------------------------------------|
B|1-2-1-2-1-2-1-2-1-2--222-111-222-111-4444---------------------------------
[ Tab from: http://www.guitartabs.cc/tabs/s/skinlab/when_pain_comes_to_surface_btab.html ]
pre-chorus(x4 i think):
G|---------------------------------------------------------------------------|
D|---------------------------------------------------------------------------|
A|---------------------------------------------------------------------------|
B|2-1---0-3-2-1---2-1---0-3-2-1-4-4-4-4------------------------------------

chorus:
G|---------------------------------------------------------------------------|
D|---------------------------------------------------------------------------|
A|---------------------------------------------------------------------------|
B|2-1-2-1-4444-2-1-2-1-4444-2-1-2-1-4444-2-1-2-1-4444-----------------------

this is the part with only bass(x8 i think):
G|---------------------------------------------------------------------------|
D|---------------------------------------------------------------------------|
A|---------------------------------------------------------------------------|
B|2-1-1-1-1-1-1-3-3-2-1-1-1-1-1-1-4-4---------------------------------------

this is the part where he is saying "c'mon!! bitch!!....(till the end of the song)
G|---------------------------------------------------------------------------|
D|---------------------------------------------------------------------------|
A|---------------------------------------------------------------------------|
B|2-1-2-1-4444--------------------------------------------------------------

thats it. its a very simple song.
peace

| /  slide up
| \  slide down
| h  hammer-on
| p  pull-off
| ~  vibrato
| +  harmonic
| x  Mute note
===============================================================================
Comments