Skinlab - So Far From The Truth Chords & Tabs

 

So Far From The Truth Chords & Tabs

Skinlab Chords & Tabs

Version: 1 Type: Tab 0 ratings
1 star 2 stars 3 stars 4 stars 5 stars
comments

So Far From The Truth Tab

Song : So far from the truth
Artist : Skinlab
Album : Disembody : the new flesh

Tuning : A#-E#-A#-D#-G#-B# (low to high)
. = let ring notes

intro (bass)
intro guitar 1 and 2
riff 1
--------------------------------------------------------------------------
--------------------------------------------------------------------------
--------------------------------------------------------------------------
--------------------------------------------------------------------------
-9-9-9----------8--9-9-9----------8--9-9-9----------8--9-9-9----------8---
-------10-10-10----------10-10-10----------10-10-10----------10-10-10-----
riff 2
--------------------------------------------------------------------------
--------------------------------------------------------------------------
--------------------------------------------------------------------------
--------------------------------------------------------repeat 2 times----
-9-9-9----------8-8-8-------9-9-9----------8-8-8--------------------------
-------10-10-10-------8-8-8-------10-10-10-------8-8-8--------------------
repeat riff 1

riff 3
--------------------------------------------------------------
--------------------------------------------------------------
--------------------------------------------------------------
-------------------------------repeat 4 times-----------------
--------------------------------------------------------------
-5-3-5-x-5-3-5-x-6-6-6-6--------------------------------------
[ Tab from: http://www.guitartabs.cc/tabs/s/skinlab/so_far_from_the_truth_tab.html ]
riff 4                             riff 5
----------------------------------|----------------------------
----------------------------------|----------------------------
---------------------8-8-8-8-8-8--|----------------------------
---------------------x-x-x-x-x-x--|----------------------------
---------------------6-6-6-6-6-6--|----------------------------
-0-6-6-5-5-3-3-5-3-0--------------|-0-6-6-5-5-3-3-5-3--0-0-0-0-


Guitar 1......            Both guitars
riff 6                    riff 7
-------------------------|-------------------------------------
-------------------------|-------------------------------------
-------------------------|-------------------------------------
-------------------------|-------------repeat 2 times----------
---------repeat 2 times--|-------------------------------------
-0-1-0-1-----------------|-0-6-5-3-5-3-0-6-5-3-5-3-0-----------
 . . . . |

repeat riff 3-4-5-6 and 7 

riff 8
--------------------------------------------------------------
--------------------------------------------------------------
--------------------------------------------------------------
-0-0-0-1-1-1-0-0-0-1-1-1-0-0-1-1---------repeat some times....
-0-0-0-1-1-1-0-0-0-1-1-1-0-0-1-1------------------------------
-0-0-0-1-1-1-0-0-0-1-1-1-0-0-1-1------------------------------
---------------PM----------------

riff 9
--------------------------------------------------------------
--------------------------------------------------------------
--------------------------------------------------------------
--0----1----0----1----0--1----------repeat until the end------
--------------------------------------------------------------
-0-0--1-1--0-0--1-1--0--1-------------------------------------
-------------PM------------
Comments