Skinlab - So Far From The Truth Chords & Tabs

 

So Far From The Truth Chords & Tabs

Skinlab Chords & Tabs

Version: 1 Type: Bass Tab 0 ratings
1 star 2 stars 3 stars 4 stars 5 stars
comments

So Far From The Truth Bass Tab

   
BAND:      SKINLAB
SONG:      So Far From The Truth
ALBUM:     Disembody The New Flesh
TUNING:    (A# F A# D# G#)
TABBED BY: Jason Starr
(starry_80@hotmail.com)


INTRO RIFF A    X4
A#|-5-5-5-0-0-0-3-3-3-3-3-3-3-3-3-3---------------|
F |-----------------------------------------------|
A#|-----------------------------------------------|


INTRO RIFF B    X4
A#|-5-5-5-0-0-0-3-3-3-----------------------------|
F |-------------------2-2-2-2-2-2-2---------------|
A#|-----------------------------------------------|


PLAY INTRO A    X4
PLAY INTRO B    X4
PLAY INTRO A    X4


VERSE RIFF A    X3        VERSE RIFF B  X1
A#|-----------------------|-----------------------|
F |-----------------------|-----------------------|
A#|-5-3-5(5)5-3-5(5)6-6-3-|-5-3-5(5)5-3-5(5)6-6-6-|


PLAY VERSE A    X4


CHORUS          X3
A#|---------------------------1-1-1-1-1-----------|
F |-----------------------------------------------|
A#|-000-666-555-33-55-33-0~-----------------------|

[ Tab from: http://www.guitartabs.cc/tabs/s/skinlab/so_far_from_the_truth_btab.html ]
BRIDGE RIFF A   X1
A#|-----------------------------------------------|
F |-----------------------------------------------|
A#|-000-666-555-33-55-33----0!--0!--0!--0!--------|


PLAY BRIDGE A   X8      (guitar plays A#|-0-1-0-0-|-0-1-0-111|)
PLAY BRIDGE A   X8      (along with guitar)
PLAY VERSE A    X3
PLAY VERSE B    X1
PLAY VERSE A    X3
PLAY VERSE B    X1
PLAY VERSE A    X4
PLAY CHORUS     X3
PLAY RIFF A     X1
PLAY RIFF B     X1


OUTRO RIFF A    X1              OUTRO RIFF B    X7
A#|-----------------------------|------------------------------|
F |-----------------------------|------------------------------|
A#|-000001-000001-000001-000001-|-000-111-000-111-00-11--------|(2X 1. not eleven)


OUTRO RIFF C    X1
A#|-----------------------------------------------|
F |-----------------------------------------------|
A#|-000-111111111111------------------------------|


PLAY OUTRO B    X4
REST            X4
PLAY OUTRO B    X20



*******
  KEY
*******
~     = Let ring
(?)   = ghost note
!     = Short, sharp note
Comments