Skinlab - Second Skin New Flesh Chords & Tabs

 

Second Skin New Flesh Chords & Tabs

Skinlab Chords & Tabs

Version: 1 Type: Tab 0 ratings
1 star 2 stars 3 stars 4 stars 5 stars
comments

Second Skin New Flesh Tab

   
Band : Skinlab 
Song : Second skin : new flesh
Album : Disembody : the new flesh

Tuning : A#-E#-A#-D#-G#-B# (low to high)
* = harmonic
/ = slide
h = hammer
p = pull off

intro & verse 1 guitar 1
-------------------------------------------------------------
-------------------------------------------------------------
-------------------------------------------------------------
--0---3---1--4-----------------------------------------------
----------------------repeat some times----------------------
-0-0-3-3-1--4------------------------------------------------
-------PM------
intro and verse 1 guitar 2...i don't really know what is it...

[ Tab from: http://www.guitartabs.cc/tabs/s/skinlab/second_skin_new_flesh_tab.html ]
intro & verse 2 guitar 1 & 2
-------------------------------------------------------------
-------------------------------------------------------------
---7-7-------------------------------------------------------
---7-7--3---1--4---------------------------------------------
---5-5---------------repeat some times-----------------------
-0----3-3-1--4---0--------------------------------------------
     -------PM------
chorus guitar 1 & 2
-------------------------------------------------------------
-------------------------------------------------------------
-------------------------------------------------------------
-0-3-1-4/6--------------------------------------x2-----------
-0-3-1-4/6---------------------------------------------------
-0-3-1-4/6--0-3-1-4/6--0-3-1-4/6--0-3-3-3-3-3----------------
                                      * * * *

after this, play verse 1 then 2


bridge 1
-------------------------------------------------------------
-------------------------------------------------------------
-------------------------------------------------------------
-6-6-6-6-6-6-6-6-6-6-6-6-------------------------------------
-6-6-6-6-6-6-6-6-6-6-6-6-------------------------------------
-6-6-6-6-6-6-6-6-6-6-6-6--0-1-0-1-0-2-3-2--0-1-0-1-0-2-3-2---
then...
-------------------------------------------------------------
-------------------------------------------------------------
-------------------------------------------------------------
-6-6-6-6-6-6-6-6-6-6-6-6-------------------------------------
-6-6-6-6-6-6-6-6-6-6-6-6-------------------------------------
-6-6-6-6-6-6-6-6-6-6-6-6--0-1-0-1-0-2-3-2--0-1-0-1-0-2-3-2---
                         ----pm-----      ----pm-----


bridge 2
-------------------------------------------------------------
-------------------------------------------------------------
-------------------------------------------------------------
---------------------0-0-0h1-1p0-0-0h1-1p0-0-0h1-1p0-0-0h1---
-------------------------------------------------------------
-0--0--1---0--0--1-------------------------------------------
(let ring all notes)


repeat intro 1 (after second times,guitar 2 play at the same time)
repeat chorus
repeat bridge 1 & 2 (until the end)


any questions? email me at malakianity@hotmail.com
Comments