Skinlab - Purify Chords & Tabs

 

Purify Chords & Tabs

Skinlab Chords & Tabs

Version: 1 Type: Tab 0 ratings
1 star 2 stars 3 stars 4 stars 5 stars
comments

Purify Tab

Author/Artist: Skinlab
Title: Purify
Album: The Revolting Room
Transcribed by: jason johnson
Email: jgeckoking@hotmail.com

This cd owns...

Tuning: A sharp (A#,E#,A#,D#,G#,B#)

x = mute
. = palm mute


intro:
------------------------------------------------------------------------------
------------------------------------------------------------------------------
-7777777777-8888888888--------------------------------------------------------
-7777777777-8888888888--------------------------------------------------------
-5555555555-6666666666--------------------------------------------------------
------------------------------------------------------------------------------
                                                                              
intro 2:                         last time play this:
-----------------------|--------|---------------------------------------------
-----------------------|--------|---------------------------------------------
-----------------------|--------|---------------------------------------------
-555555555-666666666---|--------|-44444444------------------------------------
-555555555-666666666---|x4------|-44444444------------------------------------
-555555555-666666666---|--------|-44444444------------------------------------
                                                                              

verse: palm muted
-----------------------|--------|---------------------------------------------
-----------------------|--------|---------------------------------------------
-----------------------|--------|---------------------------------------------
-555555555-666666666---|--------|-44444444------------------------------------
-555555555-666666666---|x4------|-44444444------------------------------------
-555555555-666666666---|--------|-44444444------------------------------------
 ......... .........              ........  

chorus guitar 1:
-----------------------|--------|---------------------------------------------
-----------------------|--------|---------------------------------------------
-----------------------|--------|---------------------------------------------
-555555555-666666666---|--------|-44444444------------------------------------
-555555555-666666666---|x4------|-44444444------------------------------------
-555555555-666666666---|--------|-44444444------------------------------------

[ Tab from: http://www.guitartabs.cc/tabs/s/skinlab/purify_tab.html ]
chorus guitar 2:
-------------------------|----------------------------------------------------
-8-7--7-7-7--10----------|-8-7--7-7-7--6-------------------------------------
-x-x--x-x-x--x-----------|-x-x--x-x-x--x--------------------------------------
-6-5--5-5-5--8-----------|-6-5--5-5-5--4--------------------------------------
-------------------------|----------------------------------------------------
-------------------------|----------------------------------------------------

2:12
------------------------------------------------------------------------------
------------------------------------------------------------------------------
------------------------------------------------------------------------------
-4-x-x-4-x-x-4-x-x-4h5--------------------------------------------------------
-4-x-x-4-x-x-4-x-x-4h5--------------------------------------------------------
-4-x-x-4-x-x-4-x-x-4h5--------------------------------------------------------
                                                                              

interlude 1:
------------------------------------------------------------------------------
------------------------------------------------------------------------------
-7-5--7-5--7-5--8-------------------------------------------------------------
-x-x--x-x--x-x--x-------------------------------------------------------------
-5-3--5-3--5-3--6-------------------------------------------------------------
------------------------------------------------------------------------------
                                                                              
intelude 1 part 2:
------------------------------------------------------------------------------
------------------------------------------------------------------------------
------------------------------------------------------------------------------
-5-3--5-3--5-3--6---5-3--5-3--5-3--2-2-2--------------------------------------
-5-3--5-3--5-3--6---5-3--5-3--5-3--2-2-2--------------------------------------
-5-3--5-3--5-3--6---5-3--5-3--5-3--2-2-2--------------------------------------
                                                                              
interlude 2:
------------------------------------------------------------------------------
------------------------------------------------------------------------------
------------------------------------------------------------------------------
------------------------------------------------------------------------------
-555555555--666666666---------------------------------------------------------
------------------------------------------------------------------------------
                                                                              

Comments