Skinlab - I Name My Pain Chords & Tabs

 

I Name My Pain Chords & Tabs

Skinlab Chords & Tabs

Version: 2 Type: Tab 0 ratings
1 star 2 stars 3 stars 4 stars 5 stars
comments

I Name My Pain Tab

   
Song: I Name My Pain
Band: SkinlaB
Album: Disembody: The New Flesh
Guitarist: Snake and Scott
Transcribed: jose oRejeL (albafreak1@juno.com)
drop D

b equals bend note
(____) equals strumming note


I DIDN'T REALLY TAKE THE TIME TO FIGURE OUT THE TIMING, BUT LISTEN
TO THE SONG FIRST, THEN U KAN HAVE AN IDEA OF THE TIMING...PLEASE,
VOTE FOR MY TAB...THANK U...ALL OF THE SONG IS PLAYED WITHOUT
DISTORTION...IT'S ALL CLEAN...

RIFF A 
guitar 1 (Snake):

E|-------------|
B|-------------|
G|--7--8b>7>6--| play about 9 times then, 
D|--5--6b>5>4--| play riff B
A|--5--6b>5>4--|
D|-------------|

guitar 2 (Scott):
E|-------|
B|-------|
G|-------|
D|-------| play kinda slow, hit this part multiple times
A|--xxx--|
D|--xxx--|

RIFF B
guitar 1:

E|--------------|
B|--------------|
G|--7--8b>7>6---|
D|--5--6b>5>4---|
A|--5--6b>5>4---| play this for a while 
D|--------------| then go to riff C
[ Tab from: http://www.guitartabs.cc/tabs/s/skinlab/i_name_my_pain_tab_ver_2.html ]
guitar 2:
E|--------------|
B|--------------|
G|------5----5--|
D|------5----5--|
A|--------------|
D|--------------|

RIFF C
guitar 1:

E|--------------------------|
B|--------------------------|
G|---7-7-7-7-8-8-8-8-7-7-6--| I'm not sure about this part
D|--5-5-5-5-6-6-6-6-5-5-4---| but i think it's 
A|--------------------------| accurate...
D|--------------------------|

RIFF D - Chorus/Outro
guitar 1:

E|----------------------------------------------------|
B|----------------------------------------------------|
G|--7-7-7-7-7-7-8--8-8-8-8-8-8-7-7-7-7-7-7-7-6-6-6-6--|
D|--5-5-5-5-5-5-6--6-6-6-6-6-6-5-5-5-5-5-5-5-4-4-4-4--|
A|--5-5-5-5-5-5-6--6-6-6-6-6-6-5-5-5-5-5-5-5-4-4-4-4--|
D|----------------------------------------------------|
      |-strum-|     |-------------strum-------------|

Outro for Guitar 2:

E|---------|
B|---------|
G|---------|
D|---------| play this at normal speed
A|---------| then slow down gradually
D|--0-0-0--| don't strum this...


WELL THAT'S ALL...I HOPE U LIKE IT...WELL LATER DAYS...PLEASE VOTE
FOR MY TAB...EVEN IF U GIVE IT A ONE....
Comments