Skinlab - I Name My Pain Chords & Tabs

 

I Name My Pain Chords & Tabs

Skinlab Chords & Tabs

Version: 1 Type: Tab 0 ratings
1 star 2 stars 3 stars 4 stars 5 stars
comments

I Name My Pain Tab

Song : I name my pain
Artist : Skinlab
Album : Disembody : the new flesh

Tuning : A#-E#-A#-D#-G#-B# (low to high)


Guitar 1 Verse         do this after many many times....

----------------------|----0-0-------0-0-----0-0------------------
----------------------|----0-0-------0-0-----0-0------------------
-11-11-10---11-11-10--|-11-----11-10------11-----11-10------------
-x---x-x----x--x--x---|-x------x--x-------x------x--x-------------
-9---9-8----9-^9--8---|-9------9--8-------9-----^9--8-------------
----------------------|-------------------------------------------

Guitar 2 Verse (at the same times)
[ Tab from: http://www.guitartabs.cc/tabs/s/skinlab/i_name_my_pain_tab.html ]
------------------------------------------------------------------
------------------------------------------------------------------
------------------------------------------------------------------
-0-0-0-0-0-0-0-0--------------------------------------------------
-0-0-0-0-0-0-0-0--------------------------------------------------
-0-0-0-0-0-0-0-0--------------------------------------------------
-------PM--------

Guitar 1

-14-----14-----14-----14-----14------13---------------------------
---14-----14-----14-----14-----14----13---------------------------
-----11-----11-----11-----11-----11--10---------------------------
------------------------------------------------------------------
------------------------------------------------------------------
------------------------------------------------------------------


Guitar 1 & 2 
------------------------------------------------------------------
------------------------------------------------------------------
-0-0-0-/9-9-9-9-/0-0-0-/9-9-9-9-/0-0-0-/9-9-9-9-/0-0-0-/9-9-9-9---
-0-0-0-/9-9-9-9-/0-0-0-/9-9-9-9-/0-0-0-/9-9-9-9-/0-0-0-/9-9-9-9---
-0-0-0-/9-9-9-9-/0-0-0-/9-9-9-9-/0-0-0-/9-9-9-9-/0-0-0-/9-9-9-9---
------------------------------------------------------------------
Comments