Skinlab - Breathe Chords & Tabs

 

Breathe Chords & Tabs

Skinlab Chords & Tabs

Version: 2 Type: Tab 0 ratings
1 star 2 stars 3 stars 4 stars 5 stars
comments

Breathe Tab

Song : Breathe
Artist : Skinlab
Album : Disembody : the New Flesh

Tuning : A# - F - A# - D# - G - C (low to high)

^ = bend note
INTRO 1
Guitar 1
-----------------------------------------------------------------------------------
-----------------------------------------------------------------------------------
-----------------------------------------------------------------------------------
---7-7-6--7-7-6--7-7-6--7-7-6-12-12--7-7-6--7-7-6--7-7-6--7-7-6-0-0-
---7-7-6--7-7-6--7-7-6--7-7-6-12-12--7-7-6--7-7-6--7-7-6--7-7-6-0-0-
---7-7-6--7-7-6--7-7-6--7-7-6-12-12--7-7-6--7-7-6--7-7-6--7-7-6-0-0-
Guitar 2 
--------------------------------------------------------------------------------------------------------------------------
--------------------------------------------------------------------------------------------------------------------------
--------------------------------------------------------------------------------------------------------------------------
---7-7-6-7-7-7-7-7-6-7-7-7--7-7-6-7-7-7-7-7-6-12-12--7-7-6-7-7-7-7-7-6-7-7-7-7-7-6-7-7-7-7-7-6-0-0-
---7-7-6-------7-7-6--------7-7-6-------7-7-6-12-12--7-7-6-------7-7-6-------7-7-6-------7-7-6-0-0-
---7-7-6-------7-7-6--------7-7-6-------7-7-6-12-12--7-7-6-------7-7-6-------7-7-6-------7-7-6-0-0-

 INTRO 2
 Guitar 1
--------------------------------------------------------------------------------------------------------------------------
--------------------------------------------------------------------------------------------------------------------------
--------------------------------------------------------------------------------------------------------------------------
--6-6-6-6-7-7-7-7-6-6-6-6-7-7-7-7-6-6-6-6-7-7-7-7-6-6-6-6-/12-12-12-12---------REPEAT---------------
--6-6-6-6-7-7-7-7-6-6-6-6-7-7-7-7-6-6-6-6-7-7-7-7-6-6-6-6-/12-12-12-12-----------------------------------
--6-6-6-6-7-7-7-7-6-6-6-6-7-7-7-7-6-6-6-6-7-7-7-7-6-6-6-6-/12-12-12-12-----------------------------------
---------------------------------PM----------------------------------
[ Tab from: http://www.guitartabs.cc/tabs/s/skinlab/breathe_tab_ver_2.html ]
Guitar 2
--------------------------------------------------------------------------------------------------------------------------
--------------------------------------------------------------------------------------------------------------------------
--------------------------------------------------------------------------------------------------------------------------
--6-6-6-6-7-7-7-7-6-6-6-6-7-7-7-7-6-6-6-6-7-7-7-7-6-6-6-6-/12-12-12-12---------REPEAT--------------
--6-6-6-6---------6-6-6-6---------6-6-6-6---------6-6-6-6-/12-12-12-12-----------------------------------
--6-6-6-6---------6-6-6-6---------6-6-6-6---------6-6-6-6-/12-12-12-12-----------------------------------

INTRO 3
Guitar 1 & 2
--------------------------------------------------------------------------------------------------------------------------
--------------------------------------------------------------------------------------------------------------------------
--------------------------------------------------------------------------------------------------------------------------
--6-6-^7-6-6-^7-6-6-^7-6-6-12-12-6-6-^7-6-6-^7-6-6-^7-6-6-12-12------------------------------------------
--6-6----6-6----6-6----6-6-12-12-6-6----6-6----6-6----6-6-12-12------------------------------------------
--6-6----6-6----6-6----6-6-12-12-6-6----6-6----6-6----6-6-12-12------------------------------------------

VERSE (Same as intro 2)
CHORUS (Same as intro 3)

BRIDGE
Guitar 1 ( guitar 2 starts the second time) I'm not sure about this part...
--------------------------------------------------------------------------------------------------------------------------
--------------------------------------------------------------------------------------------------------------------------
--------------------------------------------------------------------------------------------------------------------------
--1-1-3-3-3-1-1-3-3-3-1-1-3-3-3-1-5-5-5-5-----------------------------------------------------------------------
--1-1-3-3-3-1-1-3-3-3-1-1-3-3-3-1-5-5-5-5-----------------------------------------------------------------------
--1-1-3-3-3-1-1-3-3-3-1-1-3-3-3-1-5-5-5-5-----------------------------------------------------------------------
                                                          -pm-Sorry I don’t know the solo….. try to find it… This is my first tab 
so if you have any comments about it, email me at malakianity@hotmail.com thanx.
Comments