Skinlab - Breathe Chords & Tabs

 

Breathe Chords & Tabs

Skinlab Chords & Tabs

Version: 1 Type: Tab 0 ratings
1 star 2 stars 3 stars 4 stars 5 stars
comments

Breathe Tab

Song : Breathe
Artist : Skinlab
Album : Disembody : the New Flesh

Tuning : A#-E#-A#-D#-G#-B# (low to high)

Hey! Sorry but I make some f*cking errors on this tab...I've correct them, but I'm still not 
sure about a part...try to find it!

^ = bend note

INTRO 1
Guitar 1
------------------------------------------------------------------
------------------------------------------------------------------
------------------------------------------------------------------
---8-8-7--8-8-7--8-8-7--8-8-7-0-0--8-8-7--8-8-7--8-8-7--8-8-7-0-0-
---8-8-7--8-8-7--8-8-7--8-8-7-0-0--8-8-7--8-8-7--8-8-7--8-8-7-0-0-
---8-8-7--8-8-7--8-8-7--8-8-7-0-0--8-8-7--8-8-7--8-8-7--8-8-7-0-0-
Guitar 2 
------------------------------------------------------------------------------------------------
------------------------------------------------------------------------------------------------
------------------------------------------------------------------------------------------------
---8-8-7-7-7-7-8-8-7-7-7-7-8-8-7-7-7-7-8-8-7-0-0--8-8-7-7-7-7-8-8-7-7-7-7-8-8-7-7-7-7-8-8-7-0-0-
---8-8---------8-8-7-------8-8-7-------8-8-7-0-0--8-8-7-------8-8-7-------8-8-7-------8-8-7-0-0-
---8-8-7-------8-8-7-------8-8-7-------8-8-7-0-0--8-8-7-------8-8-7-------8-8-7-------8-8-7-0-0-

 INTRO 2
 Guitar 1
------------------------------------------------------------------------------------------------
------------------------------------------------------------------------------------------------
------------------------------------------------------------------------------------------------
--7-7-7-7-8-8-8-8-7-7-7-7-8-8-8-8-7-7-7-7-8-8-8-8-7-7-7-7-0-0-0-0----------REPEAT---------------
--7-7-7-7-8-8-8-8-7-7-7-7-8-8-8-8-7-7-7-7-8-8-8-8-7-7-7-7-0-0-0-0-------------------------------
--7-7-7-7-8-8-8-8-7-7-7-7-8-8-8-8-7-7-7-7-8-8-8-8-7-7-7-7-0-0-0-0-------------------------------
---------------------------------PM-----------------------
[ Tab from: http://www.guitartabs.cc/tabs/s/skinlab/breathe_tab.html ]
Guitar 2
------------------------------------------------------------------------------------------------
------------------------------------------------------------------------------------------------
------------------------------------------------------------------------------------------------
--7-7-7-7-8-8-8-8-7-7-7-7-8-8-8-8-7-7-7-7-8-8-8-8-7-7-7-7-0-0-0-0---------REPEAT----------------
--7-7-7-7---------7-7-7-7---------7-7-7-7---------7-7-7-7-0-0-0-0-------------------------------
--7-7-7-7---------7-7-7-7---------7-7-7-7---------7-7-7-7-0-0-0-0-------------------------------
  --PM---         ---PM--         --PM---         ---PM-- 

INTRO 3
Guitar 1 & 2
------------------------------------------------------------------------------------------------
------------------------------------------------------------------------------------------------
------------------------------------------------------------------------------------------------
--7-7-8^--7-7-8^--7-7-8^--7-7-0-0--7-7-8^--7-7-8^--7-7-8^--0-0----------------------------------
--7-7-----7-7-----7-7-----7-7-0-0--7-7-----7-7-----7-7-----0-0----------------------------------
--7-7-----7-7-----7-7-----7-7-0-0--7-7-----7-7-----7-7-----0-0----------------------------------

VERSE (Same as intro 2)
CHORUS (Same as intro 3)





BRIDGE
Guitar 1 ( guitar 2 starts the second time)  not sure about this part...
------------------------------------------------------------------------------------------------
------------------------------------------------------------------------------------------------
------------------------------------------------------------------------------------------------
------------------------------------------------------------------------------------------------
------------------------------------------------------------------------------------------------
--1-1-2-2-2-1-1-2-2-2-1-1-2-2-2-1-1-4-4-4-4-----------------------------------------------------
                                     -pm-    
------------------------------------------------------------------------------------------------
------------------------------------------------------------------------------------------------
------------------------------------------------------------------------------------------------
--1-1-2-2-2-1-1-2-2-2-1-1-2-2-2-1-1-4-4-4-4-----------------------------------------------------
--1-1-2-2-2-1-1-2-2-2-1-1-2-2-2-1-1-4-4-4-4-----------------------------------------------------
--1-1-2-2-2-1-1-2-2-2-1-1-2-2-2-1-1-4-4-4-4-----------------------------------------------------
                                     -pm-    



Sorry I don’t know the solo... try to find it... This is my first tab so if you have any comments 
about it, email me at malakianity@hotmail.com thanx.
Comments