Skillet - Youre Powerful Chords & Tabs

 

Youre Powerful Chords & Tabs

Skillet Chords & Tabs

Version: 1 Type: Bass Tab 0 ratings
1 star 2 stars 3 stars 4 stars 5 stars
comments

Youre Powerful Bass Tab

You're Powerful
Artist: Skillet
Album: Invincible
Tabbed by Kyle Sanders (sanctifiedfreak@hotmail.com)


*4-string* (one octave high)

Interlude
G---------------------
D-----6-666-----------
A--555------5553-333--
E---------------------

Verse
G---------------------------------------
D-----------------------------------3-3-
A--5~-5-5-5--5~-5-5-5--5~-5-5-5--5~-----
E---------------------------------------

Chorus
G---------------------------------------
D--------4h6-7-55-555--5----8-8-55-555--
A--55--5----------------5-5-------------
E---------------------------------------

Bridge
G--------------------------
D--------------------------
A--55----55----55----55----
E--------------------------

[ Tab from: http://www.guitartabs.cc/tabs/s/skillet/youre_powerful_btab.html ]
*5-string*

Interlude
G---------------------
D---------------------
A---------------------
E-----4-444-----------
B--333------3331-111--

Verse
G---------------------------------------
D---------------------------------------
A---------------------------------------
E---------------------------------------
B--3~-3-3-3--3~-3-3-3--3~-3-3-3--3~-6-6-

Chorus
G---------------------------------------
D---------------------------------------
A---------------------------------------
E--------2h4-5-33-333--3----6-6-33-333--
B--33--3----------------3-3-------------

Bridge
G--------------------------
D--------------------------
A--------------------------
E--------------------------
B--33----33----33----33----
Comments